  0
SECTION
  2
HEADER
  9
$ACADVER
  1
AC1014
  9
$ACADMAINTVER
 70
     9
  9
$DWGCODEPAGE
  3
ANSI_1252
  9
$INSBASE
 10
0.0
 20
0.0
 30
0.0
  9
$EXTMIN
 10
0.0
 20
150.0
 30
0.0
  9
$EXTMAX
 10
5322.125945183139
 20
4883.31621452752
 30
0.0
  9
$LIMMIN
 10
0.0
 20
0.0
  9
$LIMMAX
 10
420.0
 20
297.0
  9
$ORTHOMODE
 70
     1
  9
$REGENMODE
 70
     1
  9
$FILLMODE
 70
     1
  9
$QTEXTMODE
 70
     0
  9
$MIRRTEXT
 70
     0
  9
$DRAGMODE
 70
     2
  9
$LTSCALE
 40
1.0
  9
$OSMODE
 70
 14847
  9
$ATTMODE
 70
     1
  9
$TEXTSIZE
 40
2.5
  9
$TRACEWID
 40
1.0
  9
$TEXTSTYLE
  7
STANDARD
  9
$CLAYER
  8
TUYAUTERIE
  9
$CELTYPE
  6
BYLAYER
  9
$CECOLOR
 62
   256
  9
$CELTSCALE
 40
1.0
  9
$DELOBJ
 70
     1
  9
$DISPSILH
 70
     0
  9
$DIMSCALE
 40
1.0
  9
$DIMASZ
 40
2.5
  9
$DIMEXO
 40
0.625
  9
$DIMDLI
 40
3.75
  9
$DIMRND
 40
0.0
  9
$DIMDLE
 40
0.0
  9
$DIMEXE
 40
1.25
  9
$DIMTP
 40
0.0
  9
$DIMTM
 40
0.0
  9
$DIMTXT
 40
2.5
  9
$DIMCEN
 40
2.5
  9
$DIMTSZ
 40
0.0
  9
$DIMTOL
 70
     0
  9
$DIMLIM
 70
     0
  9
$DIMTIH
 70
     0
  9
$DIMTOH
 70
     0
  9
$DIMSE1
 70
     0
  9
$DIMSE2
 70
     0
  9
$DIMTAD
 70
     1
  9
$DIMZIN
 70
     8
  9
$DIMBLK
  1

  9
$DIMASO
 70
     1
  9
$DIMSHO
 70
     1
  9
$DIMPOST
  1

  9
$DIMAPOST
  1

  9
$DIMALT
 70
     0
  9
$DIMALTD
 70
     3
  9
$DIMALTF
 40
0.03937007874016
  9
$DIMLFAC
 40
1.0
  9
$DIMTOFL
 70
     1
  9
$DIMTVP
 40
0.0
  9
$DIMTIX
 70
     0
  9
$DIMSOXD
 70
     0
  9
$DIMSAH
 70
     0
  9
$DIMBLK1
  1

  9
$DIMBLK2
  1

  9
$DIMSTYLE
  2
ISO-25
  9
$DIMCLRD
 70
     0
  9
$DIMCLRE
 70
     0
  9
$DIMCLRT
 70
     0
  9
$DIMTFAC
 40
1.0
  9
$DIMGAP
 40
0.625
  9
$DIMJUST
 70
     0
  9
$DIMSD1
 70
     0
  9
$DIMSD2
 70
     0
  9
$DIMTOLJ
 70
     0
  9
$DIMTZIN
 70
     8
  9
$DIMALTZ
 70
     0
  9
$DIMALTTZ
 70
     0
  9
$DIMFIT
 70
     3
  9
$DIMUPT
 70
     0
  9
$DIMUNIT
 70
     2
  9
$DIMDEC
 70
     2
  9
$DIMTDEC
 70
     2
  9
$DIMALTU
 70
     2
  9
$DIMALTTD
 70
     3
  9
$DIMTXSTY
  7
STANDARD
  9
$DIMAUNIT
 70
     0
  9
$LUNITS
 70
     2
  9
$LUPREC
 70
     3
  9
$SKETCHINC
 40
1.0
  9
$FILLETRAD
 40
10.0
  9
$AUNITS
 70
     0
  9
$AUPREC
 70
     0
  9
$MENU
  1
.
  9
$ELEVATION
 40
0.0
  9
$PELEVATION
 40
0.0
  9
$THICKNESS
 40
0.0
  9
$LIMCHECK
 70
     0
  9
$CHAMFERA
 40
10.0
  9
$CHAMFERB
 40
10.0
  9
$CHAMFERC
 40
20.0
  9
$CHAMFERD
 40
0.0
  9
$SKPOLY
 70
     0
  9
$TDCREATE
 40
2455022.67902618
  9
$TDUPDATE
 40
2457692.930637847
  9
$TDINDWG
 40
0.0917640046
  9
$TDUSRTIMER
 40
2457692.790382662
  9
$USRTIMER
 70
     1
  9
$ANGBASE
 50
0.0
  9
$ANGDIR
 70
     0
  9
$PDMODE
 70
     0
  9
$PDSIZE
 40
0.0
  9
$PLINEWID
 40
0.0
  9
$COORDS
 70
     2
  9
$SPLFRAME
 70
     0
  9
$SPLINETYPE
 70
     6
  9
$SPLINESEGS
 70
     8
  9
$ATTDIA
 70
     0
  9
$ATTREQ
 70
     1
  9
$HANDLING
 70
     1
  9
$HANDSEED
  5
4D1
  9
$SURFTAB1
 70
     6
  9
$SURFTAB2
 70
     6
  9
$SURFTYPE
 70
     6
  9
$SURFU
 70
     6
  9
$SURFV
 70
     6
  9
$UCSNAME
  2

  9
$UCSORG
 10
0.0
 20
0.0
 30
0.0
  9
$UCSXDIR
 10
1.0
 20
0.0
 30
0.0
  9
$UCSYDIR
 10
0.0
 20
1.0
 30
0.0
  9
$PUCSNAME
  2

  9
$PUCSORG
 10
0.0
 20
0.0
 30
0.0
  9
$PUCSXDIR
 10
1.0
 20
0.0
 30
0.0
  9
$PUCSYDIR
 10
0.0
 20
1.0
 30
0.0
  9
$USERI1
 70
     0
  9
$USERI2
 70
     0
  9
$USERI3
 70
     0
  9
$USERI4
 70
     0
  9
$USERI5
 70
     0
  9
$USERR1
 40
0.0
  9
$USERR2
 40
0.0
  9
$USERR3
 40
0.0
  9
$USERR4
 40
0.0
  9
$USERR5
 40
0.0
  9
$WORLDVIEW
 70
     1
  9
$SHADEDGE
 70
     3
  9
$SHADEDIF
 70
    70
  9
$TILEMODE
 70
     1
  9
$MAXACTVP
 70
    64
  9
$PINSBASE
 10
0.0
 20
0.0
 30
0.0
  9
$PLIMCHECK
 70
     0
  9
$PEXTMIN
 10
1.000000000000000E+20
 20
1.000000000000000E+20
 30
1.000000000000000E+20
  9
$PEXTMAX
 10
-1.000000000000000E+20
 20
-1.000000000000000E+20
 30
-1.000000000000000E+20
  9
$PLIMMIN
 10
0.0
 20
0.0
  9
$PLIMMAX
 10
0.0
 20
0.0
  9
$UNITMODE
 70
     0
  9
$VISRETAIN
 70
     1
  9
$PLINEGEN
 70
     0
  9
$PSLTSCALE
 70
     1
  9
$TREEDEPTH
 70
  3020
  9
$PICKSTYLE
 70
     0
  9
$CMLSTYLE
  2
STANDARD
  9
$CMLJUST
 70
     0
  9
$CMLSCALE
 40
20.0
  9
$PROXYGRAPHICS
 70
     1
  9
$MEASUREMENT
 70
     1
  0
ENDSEC
  0
SECTION
  2
CLASSES
  0
CLASS
  1
ACDBDICTIONARYWDFLT
  2
AcDbDictionaryWithDefault
  3
ObjectDBX Classes
 90
        0
280
     0
281
     0
  0
CLASS
  1
VISUALSTYLE
  2
AcDbVisualStyle
  3
ObjectDBX Classes
 90
     4095
280
     0
281
     0
  0
CLASS
  1
TABLESTYLE
  2
AcDbTableStyle
  3
ObjectDBX Classes
 90
     4095
280
     0
281
     0
  0
CLASS
  1
DICTIONARYVAR
  2
AcDbDictionaryVar
  3
ObjectDBX Classes
 90
        0
280
     0
281
     0
  0
CLASS
  1
SCALE
  2
AcDbScale
  3
ObjectDBX Classes
 90
     1153
280
     0
281
     0
  0
CLASS
  1
CELLSTYLEMAP
  2
AcDbCellStyleMap
  3
ObjectDBX Classes
 90
     1152
280
     0
281
     0
  0
CLASS
  1
RASTERVARIABLES
  2
AcDbRasterVariables
  3
ISM
 90
        0
280
     0
281
     0
  0
CLASS
  1
MATERIAL
  2
AcDbMaterial
  3
ObjectDBX Classes
 90
     1153
280
     0
281
     0
  0
CLASS
  1
SUN
  2
AcDbSun
  3
SCENEOE
 90
     1153
280
     0
281
     0
  0
CLASS
  1
MLEADERSTYLE
  2
AcDbMLeaderStyle
  3
ACDB_MLEADERSTYLE_CLASS
 90
     4095
280
     0
281
     0
  0
CLASS
  1
XRECORD
  2
AcDbXrecord
  3
ObjectDBX Classes
 90
        0
280
     0
281
     0
  0
CLASS
  1
LWPOLYLINE
  2
AcDbPolyline
  3
ObjectDBX Classes
 90
        0
280
     0
281
     1
  0
CLASS
  1
HATCH
  2
AcDbHatch
  3
ObjectDBX Classes
 90
        0
280
     0
281
     1
  0
ENDSEC
  0
SECTION
  2
TABLES
  0
TABLE
  2
VPORT
  5
8
330
0
100
AcDbSymbolTable
 70
     1
  0
VPORT
  5
29
330
8
100
AcDbSymbolTableRecord
100
AcDbViewportTableRecord
  2
*ACTIVE
 70
     0
 10
0.0
 20
0.0
 11
1.0
 21
1.0
 12
7474.020700093952
 22
4184.372787499413
 13
0.0
 23
0.0
 14
10.0
 24
10.0
 15
10.0
 25
10.0
 16
0.0
 26
0.0
 36
1.0
 17
-134.1869158878471
 27
0.0
 37
0.0
 40
13685.05309073947
 41
1.616576297443842
 42
50.0
 43
0.0
 44
0.0
 50
0.0
 51
0.0
 71
    16
 72
  1000
 73
     1
 74
     3
 75
     0
 76
     0
 77
     0
 78
     0
  0
ENDTAB
  0
TABLE
  2
LTYPE
  5
5
330
0
100
AcDbSymbolTable
 70
     3
  0
LTYPE
  5
14
330
5
100
AcDbSymbolTableRecord
100
AcDbLinetypeTableRecord
  2
BYBLOCK
 70
     0
  3

 72
    65
 73
     0
 40
0.0
  0
LTYPE
  5
15
330
5
100
AcDbSymbolTableRecord
100
AcDbLinetypeTableRecord
  2
BYLAYER
 70
     0
  3

 72
    65
 73
     0
 40
0.0
  0
LTYPE
  5
16
330
5
100
AcDbSymbolTableRecord
100
AcDbLinetypeTableRecord
  2
CONTINUOUS
 70
     0
  3
Solid line
 72
    65
 73
     0
 40
0.0
  0
LTYPE
  5
BE
330
5
100
AcDbSymbolTableRecord
100
AcDbLinetypeTableRecord
  2
DASHED
 70
     0
  3
 Dashed __ __ __ __ __ __ __ __ __ __ __ __ __ 
 72
    65
 73
     2
 40
0.375
 49
0.25
 74
     0
 49
-0.125
 74
     0
  0
LTYPE
  5
BF
330
5
100
AcDbSymbolTableRecord
100
AcDbLinetypeTableRecord
  2
DASHDOT
 70
     0
  3
 DashDot __ . __ . __ . __ . __ . __ . __ . __ 
 72
    65
 73
     4
 40
1.0
 49
0.5
 74
     0
 49
-0.25
 74
     0
 49
0.0
 74
     0
 49
-0.25
 74
     0
  0
ENDTAB
  0
TABLE
  2
LAYER
  5
2
102
{ACAD_XDICTIONARY
360
355
102
}
330
0
100
AcDbSymbolTable
 70
     4
  0
LAYER
  5
10
330
2
100
AcDbSymbolTableRecord
100
AcDbLayerTableRecord
  2
0
 70
     0
 62
     7
  6
CONTINUOUS
  0
LAYER
  5
B9
330
2
100
AcDbSymbolTableRecord
100
AcDbLayerTableRecord
  2
TUYAUTERIE
 70
     0
 62
     7
  6
CONTINUOUS
1001
ACAECLAYERSTANDARD
1000

1000

  0
LAYER
  5
BC
330
2
100
AcDbSymbolTableRecord
100
AcDbLayerTableRecord
  2
TUY_CHAUFFAGE
 70
     0
 62
     7
  6
CONTINUOUS
1001
ACAECLAYERSTANDARD
1000

1000

  0
LAYER
  5
BD
330
2
100
AcDbSymbolTableRecord
100
AcDbLayerTableRecord
  2
TUYAUTERIE_ECS
 70
     0
 62
     7
  6
CONTINUOUS
1001
ACAECLAYERSTANDARD
1000

1000

  0
ENDTAB
  0
TABLE
  2
STYLE
  5
3
330
0
100
AcDbSymbolTable
 70
     5
  0
STYLE
  5
11
330
3
100
AcDbSymbolTableRecord
100
AcDbTextStyleTableRecord
  2
STANDARD
 70
     0
 40
0.0
 41
1.0
 50
0.0
 71
     0
 42
2.5
  3
arial.ttf
  4

1001
ACAD
1000
Arial
1071
        0
  0
STYLE
  5
C1
330
3
100
AcDbSymbolTableRecord
100
AcDbTextStyleTableRecord
  2
COTESY
 70
     0
 40
70.0
 41
1.0
 50
0.0
 71
     0
 42
2.5
  3
ARIALUNI.TTF
  4

1001
ACAD
1000
@Arial Unicode MS
1071
        0
  0
STYLE
  5
C2
330
3
100
AcDbSymbolTableRecord
100
AcDbTextStyleTableRecord
  2
PETIT
 70
     0
 40
50.0
 41
1.0
 50
0.0
 71
     0
 42
2.5
  3
ARIALUNI.TTF
  4

1001
ACAD
1000
@Arial Unicode MS
1071
        0
  0
STYLE
  5
C3
330
3
100
AcDbSymbolTableRecord
100
AcDbTextStyleTableRecord
  2
TAILLE_33
 70
     0
 40
33.0
 41
1.0
 50
0.0
 71
     0
 42
2.5
  3
ARIALUNI.TTF
  4

1001
ACAD
1000
@Arial Unicode MS
1071
        0
  0
STYLE
  5
C4
330
3
100
AcDbSymbolTableRecord
100
AcDbTextStyleTableRecord
  2
TAILLE_40
 70
     0
 40
40.0
 41
1.0
 50
0.0
 71
     0
 42
2.5
  3
ARIALUNI.TTF
  4

1001
ACAD
1000
@Arial Unicode MS
1071
        0
  0
ENDTAB
  0
TABLE
  2
VIEW
  5
6
330
0
100
AcDbSymbolTable
 70
     0
  0
ENDTAB
  0
TABLE
  2
UCS
  5
7
330
0
100
AcDbSymbolTable
 70
     0
  0
ENDTAB
  0
TABLE
  2
APPID
  5
9
330
0
100
AcDbSymbolTable
 70
     2
  0
APPID
  5
12
330
9
100
AcDbSymbolTableRecord
100
AcDbRegAppTableRecord
  2
ACAD
 70
     0
  0
APPID
  5
BB
330
9
100
AcDbSymbolTableRecord
100
AcDbRegAppTableRecord
  2
ACAECLAYERSTANDARD
 70
     0
  0
ENDTAB
  0
TABLE
  2
DIMSTYLE
  5
A
330
0
100
AcDbSymbolTable
 70
     2
  0
DIMSTYLE
105
27
330
A
100
AcDbSymbolTableRecord
100
AcDbDimStyleTableRecord
  2
ISO-25
 70
     0
  3

  4

  5

  6

  7

 40
1.0
 41
2.5
 42
0.625
 43
3.75
 44
1.25
 45
0.0
 46
0.0
 47
0.0
 48
0.0
140
2.5
141
2.5
142
0.0
143
0.03937007874016
144
1.0
145
0.0
146
1.0
147
0.625
 71
     0
 72
     0
 73
     0
 74
     0
 75
     0
 76
     0
 77
     1
 78
     8
170
     0
171
     3
172
     1
173
     0
174
     0
175
     0
176
     0
177
     0
178
     0
270
     2
271
     2
272
     2
273
     2
274
     3
340
11
275
     0
280
     0
281
     0
282
     0
283
     0
284
     8
285
     0
286
     0
287
     3
288
     0
  0
DIMSTYLE
105
C0
330
A
100
AcDbSymbolTableRecord
100
AcDbDimStyleTableRecord
  2
COTES
 70
     0
  3

  4

  5

  6

  7

 40
1.0
 41
50.0
 42
15.0
 43
0.38
 44
50.0
 45
0.0
 46
0.0
 47
0.0
 48
0.0
140
80.0
141
0.09
142
0.0
143
25.4
144
1.0
145
0.0
146
1.0
147
15.0
 71
     0
 72
     0
 73
     1
 74
     1
 75
     0
 76
     0
 77
     2
 78
     0
170
     0
171
     2
172
     0
173
     0
174
     0
175
     0
176
     0
177
     0
178
     0
270
     2
271
     0
272
     4
273
     2
274
     2
340
C1
275
     0
280
     0
281
     0
282
     0
283
     1
284
     0
285
     0
286
     0
287
     3
288
     0
  0
ENDTAB
  0
TABLE
  2
BLOCK_RECORD
  5
1
330
0
100
AcDbSymbolTable
 70
    38
  0
BLOCK_RECORD
  5
1F
330
1
100
AcDbSymbolTableRecord
100
AcDbBlockTableRecord
  2
*MODEL_SPACE
  0
BLOCK_RECORD
  5
1B
330
1
100
AcDbSymbolTableRecord
100
AcDbBlockTableRecord
  2
*PAPER_SPACE
  0
BLOCK_RECORD
  5
23
330
1
100
AcDbSymbolTableRecord
100
AcDbBlockTableRecord
  2
*PAPER_SPACE0
  0
BLOCK_RECORD
  5
11D
330
1
100
AcDbSymbolTableRecord
100
AcDbBlockTableRecord
  2
DISCONNECTEUR
  0
BLOCK_RECORD
  5
125
330
1
100
AcDbSymbolTableRecord
100
AcDbBlockTableRecord
  2
MANOMETRE
  0
BLOCK_RECORD
  5
131
330
1
100
AcDbSymbolTableRecord
100
AcDbBlockTableRecord
  2
FILTRE
  0
BLOCK_RECORD
  5
147
330
1
100
AcDbSymbolTableRecord
100
AcDbBlockTableRecord
  2
THERMOMETRE
  0
BLOCK_RECORD
  5
15C
330
1
100
AcDbSymbolTableRecord
100
AcDbBlockTableRecord
  2
BOUCHON
  0
BLOCK_RECORD
  5
184
330
1
100
AcDbSymbolTableRecord
100
AcDbBlockTableRecord
  2
VANNE
  0
BLOCK_RECORD
  5
193
330
1
100
AcDbSymbolTableRecord
100
AcDbBlockTableRecord
  2
POMPE
  0
BLOCK_RECORD
  5
199
330
1
100
AcDbSymbolTableRecord
100
AcDbBlockTableRecord
  2
SYMB_RADIATEUR_EQUIPE
  0
BLOCK_RECORD
  5
19C
330
1
100
AcDbSymbolTableRecord
100
AcDbBlockTableRecord
  2
SYMBOLE_RADIATEUR
  0
BLOCK_RECORD
  5
1A4
330
1
100
AcDbSymbolTableRecord
100
AcDbBlockTableRecord
  2
COUDE_DE_REGLAGE
  0
BLOCK_RECORD
  5
1AC
330
1
100
AcDbSymbolTableRecord
100
AcDbBlockTableRecord
  2
VANNE_REGUL_ANGLE
  0
BLOCK_RECORD
  5
1BD
330
1
100
AcDbSymbolTableRecord
100
AcDbBlockTableRecord
  2
PURGEUR_AIR_AUTOMATIQUE
  0
BLOCK_RECORD
  5
1C6
330
1
100
AcDbSymbolTableRecord
100
AcDbBlockTableRecord
  2
CAPTEUR_TEMPERATURE
  0
BLOCK_RECORD
  5
1D7
330
1
100
AcDbSymbolTableRecord
100
AcDbBlockTableRecord
  2
SEPARATEUR_AIR
  0
BLOCK_RECORD
  5
1DE
330
1
100
AcDbSymbolTableRecord
100
AcDbBlockTableRecord
  2
SYMB_RADIATEUR_VERTICAL
  0
BLOCK_RECORD
  5
1E7
330
1
100
AcDbSymbolTableRecord
100
AcDbBlockTableRecord
  2
TE_DE_REGLAGE
  0
BLOCK_RECORD
  5
1F1
330
1
100
AcDbSymbolTableRecord
100
AcDbBlockTableRecord
  2
SEPARATEUR_DE_BOUES
  0
BLOCK_RECORD
  5
200
330
1
100
AcDbSymbolTableRecord
100
AcDbBlockTableRecord
  2
RADIATEUR_ETROIT
  0
BLOCK_RECORD
  5
203
330
1
100
AcDbSymbolTableRecord
100
AcDbBlockTableRecord
  2
TE_REGLAGE
  0
BLOCK_RECORD
  5
212
330
1
100
AcDbSymbolTableRecord
100
AcDbBlockTableRecord
  2
UNION
  0
BLOCK_RECORD
  5
22B
330
1
100
AcDbSymbolTableRecord
100
AcDbBlockTableRecord
  2
CLAPET
  0
BLOCK_RECORD
  5
24F
330
1
100
AcDbSymbolTableRecord
100
AcDbBlockTableRecord
  2
SYMBOLE_CLAPET_BATTANT
  0
BLOCK_RECORD
  5
259
330
1
100
AcDbSymbolTableRecord
100
AcDbBlockTableRecord
  2
GROUPE_FILTRATION
  0
BLOCK_RECORD
  5
264
330
1
100
AcDbSymbolTableRecord
100
AcDbBlockTableRecord
  2
MITIGEUR_THERMOSTATIQUE
  0
BLOCK_RECORD
  5
26E
330
1
100
AcDbSymbolTableRecord
100
AcDbBlockTableRecord
  2
TE_FEMELLE
  0
BLOCK_RECORD
  5
28B
330
1
100
AcDbSymbolTableRecord
100
AcDbBlockTableRecord
  2
RACCORD_UNION
  0
BLOCK_RECORD
  5
29D
330
1
100
AcDbSymbolTableRecord
100
AcDbBlockTableRecord
  2
VANNE_MF
  0
BLOCK_RECORD
  5
2E0
330
1
100
AcDbSymbolTableRecord
100
AcDbBlockTableRecord
  2
BALLON_EXPANSION_ECS
  0
BLOCK_RECORD
  5
2EA
330
1
100
AcDbSymbolTableRecord
100
AcDbBlockTableRecord
  2
BALLON_ECS
  0
BLOCK_RECORD
  5
2F6
330
1
100
AcDbSymbolTableRecord
100
AcDbBlockTableRecord
  2
BALLON_ECS_ÉLECTRIQUE
  0
BLOCK_RECORD
  5
300
330
1
100
AcDbSymbolTableRecord
100
AcDbBlockTableRecord
  2
GROUPE_DE_SÉCURITÉ
  0
BLOCK_RECORD
  5
30D
330
1
100
AcDbSymbolTableRecord
100
AcDbBlockTableRecord
  2
CHAUDIÈRE_GAZ
  0
BLOCK_RECORD
  5
32C
330
1
100
AcDbSymbolTableRecord
100
AcDbBlockTableRecord
  2
RADIATEUR_CHAMBRE_RDC
  0
BLOCK_RECORD
  5
334
330
1
100
AcDbSymbolTableRecord
100
AcDbBlockTableRecord
  2
VANNE_REGULATION
  0
BLOCK_RECORD
  5
33F
330
1
100
AcDbSymbolTableRecord
100
AcDbBlockTableRecord
  2
BALLON_D_INJECTION
  0
BLOCK_RECORD
  5
34A
330
1
100
AcDbSymbolTableRecord
100
AcDbBlockTableRecord
  2
RADIATEUR_BUANDERIE
  0
ENDTAB
  0
ENDSEC
  0
SECTION
  2
BLOCKS
  0
BLOCK
  5
20
330
1F
100
AcDbEntity
  8
0
100
AcDbBlockBegin
  2
*MODEL_SPACE
 70
     0
 10
0.0
 20
0.0
 30
0.0
  3
*MODEL_SPACE
  1

  0
ENDBLK
  5
21
330
1F
100
AcDbEntity
  8
0
100
AcDbBlockEnd
  0
BLOCK
  5
1C
330
1B
100
AcDbEntity
 67
     1
  8
0
100
AcDbBlockBegin
  2
*PAPER_SPACE
 70
     0
 10
0.0
 20
0.0
 30
0.0
  3
*PAPER_SPACE
  1

  0
ENDBLK
  5
1D
330
1B
100
AcDbEntity
 67
     1
  8
0
100
AcDbBlockEnd
  0
BLOCK
  5
24
330
23
100
AcDbEntity
  8
0
100
AcDbBlockBegin
  2
*PAPER_SPACE0
 70
     0
 10
0.0
 20
0.0
 30
0.0
  3
*PAPER_SPACE0
  1
*PAPER_SPACE0
  0
ENDBLK
  5
25
330
23
100
AcDbEntity
  8
0
100
AcDbBlockEnd
  0
BLOCK
  5
11E
330
11D
100
AcDbEntity
  8
0
100
AcDbBlockBegin
  2
DISCONNECTEUR
 70
     0
 10
0.0
 20
0.0
 30
0.0
  3
DISCONNECTEUR
  1
Disconnecteur
  0
LWPOLYLINE
  5
11F
330
11D
100
AcDbEntity
  8
0
100
AcDbPolyline
 90
        5
 70
     0
 43
0.0
 10
10.0
 20
-10.0
 10
10.0
 20
10.0
 10
25.0
 20
0.0
 10
25.0
 20
0.0
 10
10.0
 20
-10.0
  0
LWPOLYLINE
  5
120
330
11D
100
AcDbEntity
  8
0
100
AcDbPolyline
 90
        5
 70
     0
 43
0.0
 10
35.0
 20
-10.0
 10
35.0
 20
10.0
 10
50.0
 20
0.0
 10
50.0
 20
0.0
 10
35.0
 20
-10.0
  0
LWPOLYLINE
  5
121
330
11D
100
AcDbEntity
  8
0
 48
50.0
100
AcDbPolyline
 90
        4
 70
     1
 43
0.0
 10
0.0
 20
10.0
 10
0.0
 20
-10.0
 10
55.0
 20
-10.0
 10
55.0
 20
10.0
  0
LINE
  5
122
330
11D
100
AcDbEntity
  8
0
 62
     5
100
AcDbLine
 10
30.0
 20
-10.0
 30
0.0
 11
30.0
 21
-20.67708676053735
 31
0.0
  0
ENDBLK
  5
123
330
11D
100
AcDbEntity
  8
0
100
AcDbBlockEnd
  0
BLOCK
  5
126
330
125
100
AcDbEntity
  8
0
100
AcDbBlockBegin
  2
MANOMETRE
 70
     0
 10
0.0
 20
0.0
 30
0.0
  3
MANOMETRE
  1
Manometre
  0
CIRCLE
  5
127
330
125
100
AcDbEntity
  8
0
 48
50.0
100
AcDbCircle
 10
0.0
 20
29.19090697672073
 30
0.0
 40
14.14234423991002
  0
LINE
  5
128
330
125
100
AcDbEntity
  8
0
 48
50.0
100
AcDbLine
 10
0.0
 20
15.04856273681071
 30
0.0
 11
0.0
 21
0.0
 31
0.0
  0
LINE
  5
129
330
125
100
AcDbEntity
  8
0
 48
50.0
100
AcDbLine
 10
2.140625748719685
 20
22.50543515424943
 30
0.0
 11
-7.997238533815107
 21
37.04202166735922
 31
0.0
  0
LINE
  5
12A
330
125
100
AcDbEntity
  8
0
 48
50.0
100
AcDbLine
 10
0.0
 20
43.33325121663074
 30
0.0
 11
0.0
 21
39.73826216800808
 31
0.0
  0
LINE
  5
12B
330
125
100
AcDbEntity
  8
0
 48
50.0
100
AcDbLine
 10
14.14234423991002
 20
29.19090697672073
 30
0.0
 11
11.38199006511786
 21
29.19090697672073
 31
0.0
  0
LINE
  5
12C
330
125
100
AcDbEntity
  8
0
 48
50.0
100
AcDbLine
 10
-14.14234423991002
 20
29.19090697672073
 30
0.0
 11
-11.70456922190533
 21
29.19090697672073
 31
0.0
  0
LINE
  5
12D
330
125
100
AcDbEntity
  8
0
 48
50.0
100
AcDbLine
 10
-11.50758681907973
 20
37.41169442083992
 30
0.0
 11
-9.36045773168371
 21
35.78956402993936
 31
0.0
  0
LINE
  5
12E
330
125
100
AcDbEntity
  8
0
 48
50.0
100
AcDbLine
 10
11.50758681907973
 20
37.41169442083992
 30
0.0
 11
9.36045773168371
 21
35.78956402993936
 31
0.0
  0
ENDBLK
  5
12F
330
125
100
AcDbEntity
  8
0
100
AcDbBlockEnd
  0
BLOCK
  5
132
330
131
100
AcDbEntity
  8
0
100
AcDbBlockBegin
  2
FILTRE
 70
     0
 10
0.0
 20
0.0
 30
0.0
  3
FILTRE
  1
Filtre
  0
LWPOLYLINE
  5
133
330
131
100
AcDbEntity
  8
0
100
AcDbPolyline
 90
        5
 70
     0
 43
0.0
 10
0.0
 20
10.0
 10
0.0
 20
-10.0
 10
30.0
 20
-10.0
 10
30.0
 20
10.0
 10
0.0
 20
10.0
  0
LWPOLYLINE
  5
134
330
131
100
AcDbEntity
  8
0
100
AcDbPolyline
 90
        5
 70
     0
 43
0.0
 10
0.0
 20
10.0
 10
0.0
 20
-10.0
 10
30.0
 20
-10.0
 10
30.0
 20
10.0
 10
0.0
 20
10.0
  0
LINE
  5
135
330
131
100
AcDbEntity
  8
0
 48
50.0
100
AcDbLine
 10
15.0
 20
-10.0
 30
0.0
 11
0.0
 21
10.0
 31
0.0
  0
LINE
  5
136
330
131
100
AcDbEntity
  8
0
 48
50.0
100
AcDbLine
 10
20.0
 20
-10.0
 30
0.0
 11
5.0
 21
10.0
 31
0.0
  0
LINE
  5
137
330
131
100
AcDbEntity
  8
0
 48
50.0
100
AcDbLine
 10
25.0
 20
-10.0
 30
0.0
 11
10.0
 21
10.0
 31
0.0
  0
LINE
  5
138
330
131
100
AcDbEntity
  8
0
 48
50.0
100
AcDbLine
 10
30.0
 20
-10.0
 30
0.0
 11
15.0
 21
10.0
 31
0.0
  0
LINE
  5
139
330
131
100
AcDbEntity
  8
0
 48
50.0
100
AcDbLine
 10
5.0
 20
-10.0
 30
0.0
 11
0.0
 21
-3.333333333332121
 31
0.0
  0
LINE
  5
13A
330
131
100
AcDbEntity
  8
0
 48
50.0
100
AcDbLine
 10
10.0
 20
-10.0
 30
0.0
 11
0.0
 21
3.333333333328483
 31
0.0
  0
LINE
  5
13B
330
131
100
AcDbEntity
  8
0
 48
50.0
100
AcDbLine
 10
15.0
 20
-10.0
 30
0.0
 11
30.0
 21
10.0
 31
0.0
  0
LINE
  5
13C
330
131
100
AcDbEntity
  8
0
 48
50.0
100
AcDbLine
 10
10.0
 20
-10.0
 30
0.0
 11
25.0
 21
10.0
 31
0.0
  0
LINE
  5
13D
330
131
100
AcDbEntity
  8
0
 48
50.0
100
AcDbLine
 10
5.0
 20
-10.0
 30
0.0
 11
20.0
 21
10.0
 31
0.0
  0
LINE
  5
13E
330
131
100
AcDbEntity
  8
0
 48
50.0
100
AcDbLine
 10
0.0
 20
-10.0
 30
0.0
 11
15.0
 21
10.0
 31
0.0
  0
LINE
  5
13F
330
131
100
AcDbEntity
  8
0
 48
50.0
100
AcDbLine
 10
25.0
 20
-10.0
 30
0.0
 11
30.0
 21
-3.333333333332121
 31
0.0
  0
LINE
  5
140
330
131
100
AcDbEntity
  8
0
 48
50.0
100
AcDbLine
 10
20.0
 20
-10.0
 30
0.0
 11
30.0
 21
3.333333333328483
 31
0.0
  0
LINE
  5
141
330
131
100
AcDbEntity
  8
0
 48
50.0
100
AcDbLine
 10
5.0
 20
10.0
 30
0.0
 11
0.0
 21
3.333333333328483
 31
0.0
  0
LINE
  5
142
330
131
100
AcDbEntity
  8
0
 48
50.0
100
AcDbLine
 10
10.0
 20
10.0
 30
0.0
 11
0.0
 21
-3.333333333332121
 31
0.0
  0
LINE
  5
143
330
131
100
AcDbEntity
  8
0
 48
50.0
100
AcDbLine
 10
25.0
 20
10.0
 30
0.0
 11
30.0
 21
3.333333333328483
 31
0.0
  0
LINE
  5
144
330
131
100
AcDbEntity
  8
0
 48
50.0
100
AcDbLine
 10
20.0
 20
10.0
 30
0.0
 11
30.0
 21
-3.333333333332121
 31
0.0
  0
ENDBLK
  5
145
330
131
100
AcDbEntity
  8
0
100
AcDbBlockEnd
  0
BLOCK
  5
148
330
147
100
AcDbEntity
  8
0
100
AcDbBlockBegin
  2
THERMOMETRE
 70
     0
 10
0.0
 20
0.0
 30
0.0
  3
THERMOMETRE
  1
Thermometre
  0
CIRCLE
  5
149
330
147
100
AcDbEntity
  8
0
 48
50.0
100
AcDbCircle
 10
0.0
 20
29.19090697672073
 30
0.0
 40
14.14234423991002
  0
LINE
  5
14A
330
147
100
AcDbEntity
  8
0
 48
50.0
100
AcDbLine
 10
0.0
 20
15.04856273681071
 30
0.0
 11
0.0
 21
0.1841514804800681
 31
0.0
  0
LWPOLYLINE
  5
14B
330
147
100
AcDbEntity
  8
0
 48
50.0
100
AcDbPolyline
 90
        4
 70
     0
 43
0.0
 10
0.0
 20
21.19090697672073
 10
0.0
 20
33.33325121663074
 10
-5.0
 20
33.33325121663074
 10
5.0
 20
33.33325121663074
  0
ENDBLK
  5
14C
330
147
100
AcDbEntity
  8
0
100
AcDbBlockEnd
  0
BLOCK
  5
15D
330
15C
100
AcDbEntity
  8
0
100
AcDbBlockBegin
  2
BOUCHON
 70
     0
 10
0.0
 20
0.0
 30
0.0
  3
BOUCHON
  1
Bouchon
  0
LWPOLYLINE
  5
15E
330
15C
100
AcDbEntity
  8
0
 48
50.0
100
AcDbPolyline
 90
        4
 70
     0
 43
0.0
 10
15.625
 20
11.71875
 10
0.0
 20
11.71875
 10
0.0
 20
-11.71875
 10
15.625
 20
-11.71875
  0
LWPOLYLINE
  5
15F
330
15C
100
AcDbEntity
  8
0
 48
50.0
100
AcDbPolyline
 90
        4
 70
     0
 43
0.0
 10
7.8125
 20
0.0
 10
23.4375
 20
0.0
 10
23.4375
 20
7.8125
 10
23.4375
 20
-7.8125
  0
ENDBLK
  5
160
330
15C
100
AcDbEntity
  8
0
100
AcDbBlockEnd
  0
BLOCK
  5
185
330
184
100
AcDbEntity
  8
0
100
AcDbBlockBegin
  2
VANNE
 70
     0
 10
0.0
 20
0.0
 30
0.0
  3
VANNE
  1
Vanne
  0
LWPOLYLINE
  5
186
330
184
100
AcDbEntity
  8
0
100
AcDbPolyline
 90
        5
 70
     0
 43
0.0
 10
0.0
 20
-14.19999999999709
 10
0.0
 20
14.20000000000073
 10
37.5
 20
-14.19999999999709
 10
37.5
 20
14.20000000000073
 10
0.0
 20
-14.19999999999709
  0
ENDBLK
  5
187
330
184
100
AcDbEntity
  8
0
100
AcDbBlockEnd
  0
BLOCK
  5
194
330
193
100
AcDbEntity
  8
0
100
AcDbBlockBegin
  2
POMPE
 70
     0
 10
0.0
 20
0.0
 30
0.0
  3
POMPE
  1
Pompe
  0
CIRCLE
  5
195
330
193
100
AcDbEntity
  8
0
100
AcDbCircle
 10
-50.0
 20
0.0
 30
0.0
 40
50.00000000000001
  0
LWPOLYLINE
  5
196
330
193
100
AcDbEntity
  8
0
100
AcDbPolyline
 90
        3
 70
     1
 43
0.0
 10
-100.0
 20
0.0
 10
-50.0
 20
25.0
 10
-50.0
 20
-25.0
  0
ENDBLK
  5
197
330
193
100
AcDbEntity
  8
0
100
AcDbBlockEnd
  0
BLOCK
  5
19A
330
199
100
AcDbEntity
  8
0
100
AcDbBlockBegin
  2
SYMB_RADIATEUR_EQUIPE
 70
     0
 10
0.0
 20
0.0
 30
0.0
  3
SYMB_RADIATEUR_EQUIPE
  1
Symb radiateur equipe
  0
INSERT
  5
19B
330
199
100
AcDbEntity
  8
TUY_CHAUFFAGE
 48
50.0
100
AcDbBlockReference
  2
SYMBOLE_RADIATEUR
 10
-530.0
 20
45.00000000000364
 30
0.0
  0
INSERT
  5
1A3
330
199
100
AcDbEntity
  8
TUY_CHAUFFAGE
 48
50.0
100
AcDbBlockReference
  2
COUDE_DE_REGLAGE
 10
-450.0
 20
45.00000000000364
 30
0.0
  0
INSERT
  5
1AB
330
199
100
AcDbEntity
  8
0
 48
50.0
100
AcDbBlockReference
  2
VANNE_REGUL_ANGLE
 10
0.0
 20
345.0000000000036
 30
0.0
  0
ENDBLK
  5
1B6
330
199
100
AcDbEntity
  8
0
100
AcDbBlockEnd
  0
BLOCK
  5
19D
330
19C
100
AcDbEntity
  8
0
100
AcDbBlockBegin
  2
SYMBOLE_RADIATEUR
 70
     0
 10
0.0
 20
0.0
 30
0.0
  3
SYMBOLE_RADIATEUR
  1
Symbole Radiateur
  0
LWPOLYLINE
  5
19E
330
19C
100
AcDbEntity
  8
TUY_CHAUFFAGE
 48
50.0
100
AcDbPolyline
 90
        4
 70
     1
 43
0.0
 10
110.0
 20
-45.00000000000364
 10
110.0
 20
350.0
 10
530.0
 20
350.0
 10
530.0
 20
-45.00000000000364
  0
LINE
  5
19F
330
19C
100
AcDbEntity
  8
TUY_CHAUFFAGE
 48
50.0
100
AcDbLine
 10
530.0
 20
300.0
 30
0.0
 11
551.5625
 21
300.0
 31
0.0
  0
LINE
  5
1A0
330
19C
100
AcDbEntity
  8
TUY_CHAUFFAGE
 48
50.0
100
AcDbLine
 10
110.0
 20
0.0
 30
0.0
 11
83.75
 21
0.000000000003638
 31
0.0
  0
LINE
  5
1A1
330
19C
100
AcDbEntity
  8
TUY_CHAUFFAGE
 48
50.0
100
AcDbLine
 10
110.0
 20
300.0
 30
0.0
 11
80.0
 21
300.0
 31
0.0
  0
ENDBLK
  5
1A2
330
19C
100
AcDbEntity
  8
0
100
AcDbBlockEnd
  0
BLOCK
  5
1A5
330
1A4
100
AcDbEntity
  8
0
100
AcDbBlockBegin
  2
COUDE_DE_REGLAGE
 70
     0
 10
0.0
 20
0.0
 30
0.0
  3
COUDE_DE_REGLAGE
  1
Coude de reglage
  0
LWPOLYLINE
  5
1A6
330
1A4
100
AcDbEntity
  8
TUY_CHAUFFAGE
 48
50.0
100
AcDbPolyline
 90
        6
 70
     1
 43
0.0
 10
3.75
 20
15.00000000000182
 10
-15.0
 20
0.0
 10
-30.0
 20
-18.75
 10
0.0
 20
-18.75
 10
-15.0
 20
0.000000000001819
 10
3.75
 20
-14.99999999999818
  0
CIRCLE
  5
1A7
330
1A4
100
AcDbEntity
  8
TUY_CHAUFFAGE
 48
50.0
100
AcDbCircle
 10
-15.0
 20
0.0
 30
0.0
 40
6.25
  0
CIRCLE
  5
1A8
330
1A4
100
AcDbEntity
  8
TUY_CHAUFFAGE
 48
50.0
100
AcDbCircle
 10
-15.0
 20
0.0
 30
0.0
 40
6.25
  0
LINE
  5
1A9
330
1A4
100
AcDbEntity
  8
TUY_CHAUFFAGE
 48
50.0
100
AcDbLine
 10
-15.0
 20
-18.75
 30
0.0
 11
-15.0
 21
-45.59185951692416
 31
0.0
  0
ENDBLK
  5
1AA
330
1A4
100
AcDbEntity
  8
0
100
AcDbBlockEnd
  0
BLOCK
  5
1AD
330
1AC
100
AcDbEntity
  8
0
100
AcDbBlockBegin
  2
VANNE_REGUL_ANGLE
 70
     0
 10
0.0
 20
0.0
 30
0.0
  3
VANNE_REGUL_ANGLE
  1
VANNE_REGUL_ANGLE
  0
LINE
  5
1AE
330
1AC
100
AcDbEntity
  8
0
 48
50.0
100
AcDbLine
 10
26.25
 20
0.0
 30
0.0
 11
0.0
 21
0.0
 31
0.0
  0
LWPOLYLINE
  5
1AF
330
1AC
100
AcDbEntity
  8
0
100
AcDbPolyline
 90
        5
 70
     0
 43
0.0
 10
45.0
 20
0.0
 10
45.0
 20
0.0
 10
30.0
 20
-18.75
 10
60.0
 20
-18.75
 10
45.0
 20
0.0
  0
LINE
  5
1B0
330
1AC
100
AcDbEntity
  8
TUY_CHAUFFAGE
 48
50.0
100
AcDbLine
 10
45.00000000000364
 20
0.0
 30
0.0
 11
45.00000000000364
 21
18.75
 31
0.0
  0
ARC
  5
1B1
330
1AC
100
AcDbEntity
  8
TUY_CHAUFFAGE
 48
50.0
100
AcDbCircle
 10
45.00000000000364
 20
16.12454825141322
 30
0.0
 40
15.2280332572579
100
AcDbArc
 50
9.927919775828519
 51
170.0720802241715
  0
LINE
  5
1B2
330
1AC
100
AcDbEntity
  8
TUY_CHAUFFAGE
 48
50.0
100
AcDbLine
 10
30.00000000000364
 20
18.75
 30
0.0
 11
60.00000000000364
 21
18.75
 31
0.0
  0
LINE
  5
1B3
330
1AC
100
AcDbEntity
  8
TUY_CHAUFFAGE
 48
50.0
100
AcDbLine
 10
45.0
 20
-18.75
 30
0.0
 11
45.0
 21
-56.25
 31
0.0
  0
LWPOLYLINE
  5
1B4
330
1AC
100
AcDbEntity
  8
0
 48
50.0
100
AcDbPolyline
 90
        3
 70
     1
 43
0.0
 10
45.0
 20
0.0
 10
26.25
 20
15.0
 10
26.25
 20
-15.0
  0
ENDBLK
  5
1B5
330
1AC
100
AcDbEntity
  8
0
100
AcDbBlockEnd
  0
BLOCK
  5
1BE
330
1BD
100
AcDbEntity
  8
0
100
AcDbBlockBegin
  2
PURGEUR_AIR_AUTOMATIQUE
 70
     0
 10
0.0
 20
0.0
 30
0.0
  3
PURGEUR_AIR_AUTOMATIQUE
  1
Purgeur air automatique
  0
LINE
  5
1BF
330
1BD
100
AcDbEntity
  8
0
 48
50.0
100
AcDbLine
 10
0.0
 20
-0.000000000007276
 30
0.0
 11
0.0
 21
20.0
 31
0.0
  0
LWPOLYLINE
  5
1C0
330
1BD
100
AcDbEntity
  8
0
 48
50.0
100
AcDbPolyline
 90
        4
 70
     1
 43
0.0
 10
-15.0
 20
20.0
 10
-15.0
 20
55.0
 10
15.0
 20
55.0
 10
15.0
 20
20.0
  0
LWPOLYLINE
  5
1C1
330
1BD
100
AcDbEntity
  8
0
 48
50.0
100
AcDbPolyline
 90
        4
 70
     1
 43
0.0
 10
-18.75
 20
55.0
 10
-18.75
 20
70.0
 10
18.75
 20
70.0
 10
18.75
 20
55.0
  0
LINE
  5
1C2
330
1BD
100
AcDbEntity
  8
0
 48
50.0
100
AcDbLine
 10
8.75
 20
70.0
 30
0.0
 11
8.75
 21
80.0
 31
0.0
  0
ENDBLK
  5
1C3
330
1BD
100
AcDbEntity
  8
0
100
AcDbBlockEnd
  0
BLOCK
  5
1C7
330
1C6
100
AcDbEntity
  8
0
100
AcDbBlockBegin
  2
CAPTEUR_TEMPERATURE
 70
     0
 10
0.0
 20
0.0
 30
0.0
  3
CAPTEUR_TEMPERATURE
  1
Capteur temperature
  0
LWPOLYLINE
  5
1C8
330
1C6
100
AcDbEntity
  8
0
 48
50.0
100
AcDbPolyline
 90
        4
 70
     0
 43
0.0
 10
-5.318197676861018
 20
22.19090697672073
 10
-5.318197676861018
 20
34.33325121663074
 10
-10.31819767686102
 20
34.33325121663074
 10
-0.3181976768610184
 20
34.33325121663074
  0
CIRCLE
  5
1C9
330
1C6
100
AcDbEntity
  8
0
 48
50.0
100
AcDbCircle
 10
0.0
 20
29.19090697672073
 30
0.0
 40
14.14234423991002
  0
LINE
  5
1CA
330
1C6
100
AcDbEntity
  8
0
 48
50.0
100
AcDbLine
 10
0.0
 20
15.04856273681071
 30
0.0
 11
0.0
 21
0.0
 31
0.0
  0
LWPOLYLINE
  5
1CB
330
1C6
100
AcDbEntity
  8
TUY_CHAUFFAGE
 48
50.0
100
AcDbPolyline
 90
        7
 70
     0
 43
0.0
 10
10.26991444029954
 20
34.33325121663074
 10
2.769914440299544
 20
34.33325121663074
 10
2.769914440299544
 20
28.26207909667573
 10
9.177914726798917
 20
28.26207909667573
 10
2.769914440299544
 20
28.26207909667573
 10
2.769914440299544
 20
22.19090697672073
 10
10.17791472679892
 20
22.19090697672073
  0
ENDBLK
  5
1CC
330
1C6
100
AcDbEntity
  8
0
100
AcDbBlockEnd
  0
BLOCK
  5
1D8
330
1D7
100
AcDbEntity
  8
0
100
AcDbBlockBegin
  2
SEPARATEUR_AIR
 70
     0
 10
0.0
 20
0.0
 30
0.0
  3
SEPARATEUR_AIR
  1
Separateur air
  0
LWPOLYLINE
  5
1D9
330
1D7
100
AcDbEntity
  8
0
 48
50.0
100
AcDbPolyline
 90
        4
 70
     0
 43
0.0
 10
-60.69235713919534
 20
18.46994805060967
 10
-31.1461785696024
 20
75.37324222284951
 10
-9.546178569602034
 20
75.37324222285315
 10
-0.0000000000013642
 20
18.46994805061331
  0
LWPOLYLINE
  5
1DA
330
1D7
100
AcDbEntity
  8
0
 48
50.0
100
AcDbPolyline
 90
        4
 70
     1
 43
0.0
 10
-60.69235713919261
 20
-18.46994805062059
 10
-60.69235713919534
 20
18.46994805060967
 10
-0.0000000000013642
 20
18.46994805061331
 10
0.0000000000013642
 20
-18.46994805061695
  0
LWPOLYLINE
  5
1DB
330
1D7
100
AcDbEntity
  8
TUY_CHAUFFAGE
 48
50.0
100
AcDbPolyline
 90
        4
 70
     0
 43
0.0
 10
-9.546178569602034
 20
75.37324222285315
 10
2.136674619191126
 20
75.37324222285315
 10
2.136674619191126
 20
62.63905092620189
 10
-7.409872300770985
 20
62.63905092620189
  0
ENDBLK
  5
1DC
330
1D7
100
AcDbEntity
  8
0
100
AcDbBlockEnd
  0
BLOCK
  5
1DF
330
1DE
100
AcDbEntity
  8
0
100
AcDbBlockBegin
  2
SYMB_RADIATEUR_VERTICAL
 70
     0
 10
0.0
 20
0.0
 30
0.0
  3
SYMB_RADIATEUR_VERTICAL
  1
SYMB_RADIATEUR_VERTICAL
  0
LWPOLYLINE
  5
1E0
330
1DE
100
AcDbEntity
  8
TUY_CHAUFFAGE
 48
50.0
100
AcDbPolyline
 90
        4
 70
     1
 43
0.0
 10
0.0
 20
0.0
 10
0.0
 20
795.0
 10
400.0
 20
795.0
 10
400.0
 20
0.0
  0
LINE
  5
1E1
330
1DE
100
AcDbEntity
  8
0
 48
50.0
100
AcDbLine
 10
30.0
 20
0.0
 30
0.0
 11
30.0
 21
-30.0
 31
0.0
  0
LINE
  5
1E2
330
1DE
100
AcDbEntity
  8
0
 48
50.0
100
AcDbLine
 10
400.0
 20
795.0
 30
0.0
 11
370.0
 21
795.0
 31
0.0
  0
LINE
  5
1E3
330
1DE
100
AcDbEntity
  8
0
 48
50.0
100
AcDbLine
 10
370.0
 20
0.0
 30
0.0
 11
370.0
 21
-30.0
 31
0.0
  0
LINE
  5
1E4
330
1DE
100
AcDbEntity
  8
0
 48
50.0
100
AcDbLine
 10
370.0
 20
795.0
 30
0.0
 11
370.0
 21
825.0
 31
0.0
  0
ENDBLK
  5
1E5
330
1DE
100
AcDbEntity
  8
0
100
AcDbBlockEnd
  0
BLOCK
  5
1E8
330
1E7
100
AcDbEntity
  8
0
100
AcDbBlockBegin
  2
TE_DE_REGLAGE
 70
     0
 10
0.0
 20
0.0
 30
0.0
  3
TE_DE_REGLAGE
  1
Te de reglage
  0
LWPOLYLINE
  5
1E9
330
1E7
100
AcDbEntity
  8
TUY_CHAUFFAGE
 48
50.0
100
AcDbPolyline
 90
        6
 70
     1
 43
0.0
 10
-7.5
 20
15.0
 10
11.25
 20
-0.000000000001819
 10
30.0
 20
15.0
 10
30.0
 20
-15.0
 10
11.25
 20
0.0
 10
-7.5
 20
-15.0
  0
CIRCLE
  5
1EA
330
1E7
100
AcDbEntity
  8
TUY_CHAUFFAGE
 48
50.0
100
AcDbCircle
 10
11.25
 20
-0.000000000001819
 30
0.0
 40
6.25
  0
CIRCLE
  5
1EB
330
1E7
100
AcDbEntity
  8
TUY_CHAUFFAGE
 48
50.0
100
AcDbCircle
 10
11.25
 20
-0.000000000001819
 30
0.0
 40
6.25
  0
ENDBLK
  5
1EC
330
1E7
100
AcDbEntity
  8
0
100
AcDbBlockEnd
  0
BLOCK
  5
1F2
330
1F1
100
AcDbEntity
  8
0
100
AcDbBlockBegin
  2
SEPARATEUR_DE_BOUES
 70
     0
 10
0.0
 20
0.0
 30
0.0
  3
SEPARATEUR_DE_BOUES
  1
Separateur de boues
  0
LWPOLYLINE
  5
1F3
330
1F1
100
AcDbEntity
  8
0
 48
50.0
100
AcDbPolyline
 90
        4
 70
     1
 43
0.0
 10
0.0
 20
18.46994805061695
 10
0.0
 20
-18.46994805061331
 10
60.69235713919397
 20
-18.46994805061331
 10
60.69235713919397
 20
18.46994805061695
  0
LWPOLYLINE
  5
1F4
330
1F1
100
AcDbEntity
  8
0
 48
50.0
100
AcDbPolyline
 90
        4
 70
     0
 43
0.0
 10
0.0
 20
-18.46994805061331
 10
19.54617856959703
 20
-75.37324222285315
 10
41.1461785695974
 20
-75.37324222285315
 10
60.69235713919397
 20
-18.46994805061331
  0
LWPOLYLINE
  5
1F5
330
1F1
100
AcDbEntity
  8
0
100
AcDbPolyline
 90
        5
 70
     0
 43
0.0
 10
40.34617856959721
 20
-105.3732422228532
 10
20.34617856959721
 20
-105.3732422228532
 10
40.34617856959721
 20
-75.37324222285315
 10
20.34617856959721
 20
-75.37324222285315
 10
40.34617856959721
 20
-105.3732422228532
  0
ENDBLK
  5
1F6
330
1F1
100
AcDbEntity
  8
0
100
AcDbBlockEnd
  0
BLOCK
  5
201
330
200
100
AcDbEntity
  8
0
100
AcDbBlockBegin
  2
RADIATEUR_ETROIT
 70
     0
 10
0.0
 20
0.0
 30
0.0
  3
RADIATEUR_ETROIT
  1
RADIATEUR_ETROIT
  0
INSERT
  5
202
330
200
100
AcDbEntity
  8
TUY_CHAUFFAGE
 48
50.0
100
AcDbBlockReference
  2
TE_REGLAGE
 10
-14258.77429264581
 20
20092.44354405015
 30
0.0
 41
-0.8
 42
0.8
 43
0.8
  0
LWPOLYLINE
  5
20A
330
200
100
AcDbEntity
  8
TUY_CHAUFFAGE
 48
50.0
100
AcDbPolyline
 90
        4
 70
     1
 43
0.0
 10
-14302.21179264581
 20
20088.13104405015
 10
-14302.21179264581
 20
20483.13104405015
 10
-14602.21179264581
 20
20483.13104405015
 10
-14602.21179264581
 20
20088.13104405015
  0
LINE
  5
20B
330
200
100
AcDbEntity
  8
TUY_CHAUFFAGE
 48
50.0
100
AcDbLine
 10
-14602.21179264581
 20
20433.13104405015
 30
0.0
 11
-14628.46179264581
 21
20433.13104405015
 31
0.0
  0
LINE
  5
20C
330
200
100
AcDbEntity
  8
TUY_CHAUFFAGE
 48
50.0
100
AcDbLine
 10
-14302.21179264581
 20
20128.44354405015
 30
0.0
 11
-14277.52429264581
 21
20128.44354405015
 31
0.0
  0
INSERT
  5
20D
330
200
100
AcDbEntity
  8
0
 48
50.0
100
AcDbBlockReference
  2
VANNE_REGUL_ANGLE
 10
-14602.21179264581
 20
20433.13104405015
 30
0.0
 41
-1.0
  0
ENDBLK
  5
20E
330
200
100
AcDbEntity
  8
0
100
AcDbBlockEnd
  0
BLOCK
  5
204
330
203
100
AcDbEntity
  8
0
100
AcDbBlockBegin
  2
TE_REGLAGE
 70
     0
 10
0.0
 20
0.0
 30
0.0
  3
TE_REGLAGE
  1
Te reglage
  0
CIRCLE
  5
205
330
203
100
AcDbEntity
  8
TUY_CHAUFFAGE
 48
50.0
100
AcDbCircle
 10
0.0
 20
45.0
 30
0.0
 40
7.8125
  0
LWPOLYLINE
  5
206
330
203
100
AcDbEntity
  8
TUY_CHAUFFAGE
 48
50.0
100
AcDbPolyline
 90
        6
 70
     1
 43
0.0
 10
23.4375
 20
63.75000000000364
 10
0.0
 20
45.0
 10
-18.75
 20
21.5625
 10
18.75
 20
21.5625
 10
0.0
 20
45.00000000000364
 10
23.4375
 20
26.25000000000364
  0
CIRCLE
  5
207
330
203
100
AcDbEntity
  8
TUY_CHAUFFAGE
 48
50.0
100
AcDbCircle
 10
0.0
 20
45.0
 30
0.0
 40
7.8125
  0
LINE
  5
208
330
203
100
AcDbEntity
  8
TUY_CHAUFFAGE
 48
50.0
100
AcDbLine
 10
0.0
 20
21.5625
 30
0.0
 11
0.0
 21
-11.25
 31
0.0
  0
ENDBLK
  5
209
330
203
100
AcDbEntity
  8
0
100
AcDbBlockEnd
  0
BLOCK
  5
213
330
212
100
AcDbEntity
  8
0
100
AcDbBlockBegin
  2
UNION
 70
     0
 10
0.0
 20
0.0
 30
0.0
  3
UNION
  1
UNION
  0
LINE
  5
214
330
212
100
AcDbEntity
  8
0
 62
     0
 48
50.0
100
AcDbLine
 10
7.441194329616337
 20
-7.5
 30
0.0
 11
7.441194329616337
 21
7.5
 31
0.0
  0
LINE
  5
215
330
212
100
AcDbEntity
  8
0
 62
     0
 48
50.0
100
AcDbLine
 10
10.94119432961634
 20
5.0
 30
0.0
 11
10.94119432961634
 21
-5.0
 31
0.0
  0
LINE
  5
216
330
212
100
AcDbEntity
  8
0
 62
     0
 48
50.0
100
AcDbLine
 10
3.941194329616337
 20
5.0
 30
0.0
 11
3.941194329616337
 21
-5.0
 31
0.0
  0
ENDBLK
  5
217
330
212
100
AcDbEntity
  8
0
100
AcDbBlockEnd
  0
BLOCK
  5
22C
330
22B
100
AcDbEntity
  8
0
100
AcDbBlockBegin
  2
CLAPET
 70
     0
 10
0.0
 20
0.0
 30
0.0
  3
CLAPET
  1
Clapet
  0
CIRCLE
  5
22D
330
22B
100
AcDbEntity
  8
0
 48
50.0
100
AcDbCircle
 10
17.28444396678969
 20
-0.000000000001819
 30
0.0
 40
10.0
  0
LINE
  5
22E
330
22B
100
AcDbEntity
  8
0
 48
50.0
100
AcDbLine
 10
12.50000000000364
 20
-12.50000000000182
 30
0.0
 11
0.000000000003638
 21
-0.000000000001819
 31
0.0
  0
LINE
  5
22F
330
22B
100
AcDbEntity
  8
0
 48
50.0
100
AcDbLine
 10
0.000000000003638
 20
-0.000000000001819
 30
0.0
 11
12.50000000000364
 21
12.49999999999818
 31
0.0
  0
LINE
  5
230
330
22B
100
AcDbEntity
  8
TUYAUTERIE
100
AcDbLine
 10
41.20468845188952
 20
6.219273391916431
 30
0.0
 11
41.20468845188952
 21
6.219273391916431
 31
0.0
  0
LINE
  5
231
330
22B
100
AcDbEntity
  8
TUYAUTERIE
100
AcDbLine
 10
41.20468845188952
 20
6.219273391916431
 30
0.0
 11
38.71697909513023
 21
-7.152164400715264
 31
0.0
  0
LINE
  5
232
330
22B
100
AcDbEntity
  8
TUYAUTERIE
100
AcDbLine
 10
38.71697909513023
 20
-7.152164400715264
 30
0.0
 11
34.98541505997491
 21
6.219273391916431
 31
0.0
  0
LINE
  5
233
330
22B
100
AcDbEntity
  8
TUYAUTERIE
100
AcDbLine
 10
34.98541505997491
 20
6.219273391916431
 30
0.0
 11
31.56481469441496
 21
-7.307646235505672
 31
0.0
  0
LINE
  5
234
330
22B
100
AcDbEntity
  8
TUYAUTERIE
100
AcDbLine
 10
31.56481469441496
 20
-7.307646235505672
 30
0.0
 11
27.83325065926329
 21
6.530237061517255
 31
0.0
  0
LINE
  5
235
330
22B
100
AcDbEntity
  8
TUYAUTERIE
100
AcDbLine
 10
27.83325065926329
 20
6.530237061517255
 30
0.0
 11
25.03457763290498
 21
-6.530237061515436
 31
0.0
  0
ENDBLK
  5
236
330
22B
100
AcDbEntity
  8
0
100
AcDbBlockEnd
  0
BLOCK
  5
250
330
24F
100
AcDbEntity
  8
0
100
AcDbBlockBegin
  2
SYMBOLE_CLAPET_BATTANT
 70
     0
 10
0.0
 20
0.0
 30
0.0
  3
SYMBOLE_CLAPET_BATTANT
  1
SYMBOLE_CLAPET_BATTANT
  0
LINE
  5
251
330
24F
100
AcDbEntity
  8
TUY_CHAUFFAGE
 48
50.0
100
AcDbLine
 10
0.0
 20
18.75
 30
0.0
 11
0.0
 21
-18.75
 31
0.0
  0
LINE
  5
252
330
24F
100
AcDbEntity
  8
TUY_CHAUFFAGE
 48
50.0
100
AcDbLine
 10
0.0
 20
18.75
 30
0.0
 11
-46.875
 21
-18.75
 31
0.0
  0
LINE
  5
253
330
24F
100
AcDbEntity
  8
TUY_CHAUFFAGE
 48
50.0
100
AcDbLine
 10
-46.875
 20
-18.75
 30
0.0
 11
-46.875
 21
18.75
 31
0.0
  0
CIRCLE
  5
254
330
24F
100
AcDbEntity
  8
0
 48
50.0
100
AcDbCircle
 10
0.0
 20
18.75
 30
0.0
 40
5.0
  0
LWPOLYLINE
  5
255
330
24F
100
AcDbEntity
  8
0
 48
50.0
100
AcDbPolyline
 90
        3
 70
     0
 43
0.0
 10
-42.29658475547694
 20
-7.724384519282466
 10
-46.875
 20
-18.75
 10
-34.65204462438851
 20
-15.53511030539448
  0
ENDBLK
  5
256
330
24F
100
AcDbEntity
  8
0
100
AcDbBlockEnd
  0
BLOCK
  5
25A
330
259
100
AcDbEntity
  8
0
100
AcDbBlockBegin
  2
GROUPE_FILTRATION
 70
     0
 10
0.0
 20
0.0
 30
0.0
  3
GROUPE_FILTRATION
  1
GROUPE_FILTRATION
  0
LWPOLYLINE
  5
25B
330
259
100
AcDbEntity
  8
0
100
AcDbPolyline
 90
        4
 70
     1
 43
0.0
 10
113.9601765375701
 20
-20.0
 10
115.3056260798694
 20
-181.702347181701
 10
195.3056260798694
 20
-181.702347181701
 10
195.9601765375701
 20
-20.0
  0
ELLIPSE
  5
25C
330
259
100
AcDbEntity
  8
0
100
AcDbEllipse
 10
155.3056260798694
 20
-181.702347181701
 30
0.0
 11
40.0
 21
0.0
 31
0.0
210
0.0
220
0.0
230
-1.0
 40
0.6976467648148968
 41
0.0
 42
3.141592653589793
  0
LWPOLYLINE
  5
25D
330
259
100
AcDbEntity
  8
0
 48
50.0
100
AcDbPolyline
 90
        4
 70
     1
 43
0.0
 10
109.9601765375701
 20
-20.0
 10
109.9601765375701
 20
20.0
 10
199.9203530751292
 20
20.0
 10
199.9203530751292
 20
-20.0
  0
LWPOLYLINE
  5
25E
330
259
100
AcDbEntity
  8
0
100
AcDbPolyline
 90
        4
 70
     1
 43
0.0
 10
4.0
 20
-20.0
 10
5.34544954229932
 20
-181.702347181701
 10
85.34544954229932
 20
-181.702347181701
 10
86.0
 20
-20.0
  0
ELLIPSE
  5
25F
330
259
100
AcDbEntity
  8
0
100
AcDbEllipse
 10
45.34544954229932
 20
-181.702347181701
 30
0.0
 11
40.0
 21
0.0
 31
0.0
210
0.0
220
0.0
230
-1.0
 40
0.6976467648148968
 41
0.0
 42
3.141592653589793
  0
LWPOLYLINE
  5
260
330
259
100
AcDbEntity
  8
0
 48
50.0
100
AcDbPolyline
 90
        4
 70
     1
 43
0.0
 10
0.0
 20
-20.0
 10
0.0
 20
20.0
 10
89.96017653757008
 20
20.0
 10
89.96017653757008
 20
-20.0
  0
LINE
  5
261
330
259
100
AcDbEntity
  8
0
100
AcDbLine
 10
89.96017653757008
 20
0.0
 30
0.0
 11
109.9601765375701
 21
0.0
 31
0.0
  0
ENDBLK
  5
262
330
259
100
AcDbEntity
  8
0
100
AcDbBlockEnd
  0
BLOCK
  5
265
330
264
100
AcDbEntity
  8
0
100
AcDbBlockBegin
  2
MITIGEUR_THERMOSTATIQUE
 70
     0
 10
0.0
 20
0.0
 30
0.0
  3
MITIGEUR_THERMOSTATIQUE
  1
MITIGEUR_THERMOSTATIQUE
  0
LWPOLYLINE
  5
266
330
264
100
AcDbEntity
  8
0
100
AcDbPolyline
 90
        5
 70
     0
 43
0.0
 10
-23.4375
 20
7.8125
 10
-23.4375
 20
39.0625
 10
0.0
 20
23.4375
 10
0.0
 20
23.4375
 10
-23.4375
 20
7.8125
  0
LWPOLYLINE
  5
267
330
264
100
AcDbEntity
  8
0
100
AcDbPolyline
 90
        5
 70
     0
 43
0.0
 10
15.625
 20
0.0
 10
-15.625
 20
0.0
 10
15.625
 20
46.875
 10
-15.625
 20
46.875
 10
15.625
 20
0.0
  0
LINE
  5
268
330
264
100
AcDbEntity
  8
0
 48
50.0
100
AcDbLine
 10
0.0
 20
46.875
 30
0.0
 11
0.0
 21
61.875
 31
0.0
  0
LINE
  5
269
330
264
100
AcDbEntity
  8
0
 48
50.0
100
AcDbLine
 10
0.0
 20
0.0
 30
0.0
 11
0.0
 21
-15.0
 31
0.0
  0
LINE
  5
26A
330
264
100
AcDbEntity
  8
0
 48
50.0
100
AcDbLine
 10
-23.4375
 20
23.4375
 30
0.0
 11
-38.4375
 21
23.4375
 31
0.0
  0
ENDBLK
  5
26B
330
264
100
AcDbEntity
  8
0
100
AcDbBlockEnd
  0
BLOCK
  5
26F
330
26E
100
AcDbEntity
  8
0
100
AcDbBlockBegin
  2
TE_FEMELLE
 70
     0
 10
0.0
 20
0.0
 30
0.0
  3
TE_FEMELLE
  1
TE_FEMELLE
  0
LINE
  5
270
330
26E
100
AcDbEntity
  8
0
 48
50.0
100
AcDbLine
 10
-7.5
 20
20.0
 30
0.0
 11
-7.5
 21
-20.0
 31
0.0
  0
LWPOLYLINE
  5
271
330
26E
100
AcDbEntity
  8
0
 48
50.0
100
AcDbPolyline
 90
        3
 70
     0
 43
0.0
 10
7.5
 20
20.0
 10
7.5
 20
7.5
 10
22.5
 20
7.5
  0
LWPOLYLINE
  5
272
330
26E
100
AcDbEntity
  8
0
 48
50.0
100
AcDbPolyline
 90
        3
 70
     0
 43
0.0
 10
7.5
 20
-20.0
 10
7.5
 20
-7.5
 10
22.5
 20
-7.5
  0
ENDBLK
  5
273
330
26E
100
AcDbEntity
  8
0
100
AcDbBlockEnd
  0
BLOCK
  5
28C
330
28B
100
AcDbEntity
  8
0
100
AcDbBlockBegin
  2
RACCORD_UNION
 70
     0
 10
0.0
 20
0.0
 30
0.0
  3
RACCORD_UNION
  1
RACCORD_UNION
  0
LINE
  5
28D
330
28B
100
AcDbEntity
  8
0
 48
50.0
100
AcDbLine
 10
-3.888888888886868
 20
5.0
 30
0.0
 11
-3.888888888886868
 21
-5.0
 31
0.0
  0
LINE
  5
28E
330
28B
100
AcDbEntity
  8
0
 48
50.0
100
AcDbLine
 10
3.888888888890506
 20
5.0
 30
0.0
 11
3.888888888890506
 21
-5.0
 31
0.0
  0
LINE
  5
28F
330
28B
100
AcDbEntity
  8
0
 48
50.0
100
AcDbLine
 10
0.0
 20
10.0
 30
0.0
 11
0.0
 21
-10.0
 31
0.0
  0
ENDBLK
  5
290
330
28B
100
AcDbEntity
  8
0
100
AcDbBlockEnd
  0
BLOCK
  5
29E
330
29D
100
AcDbEntity
  8
0
100
AcDbBlockBegin
  2
VANNE_MF
 70
     0
 10
0.0
 20
0.0
 30
0.0
  3
VANNE_MF
  1
VANNE_MF
  0
INSERT
  5
29F
330
29D
100
AcDbEntity
  8
0
 48
50.0
100
AcDbBlockReference
  2
VANNE
 10
0.0
 20
-46.875
 30
0.0
 41
1.25
 42
1.25
 43
1.25
 50
90.0
  0
LWPOLYLINE
  5
2A0
330
29D
100
AcDbEntity
  8
0
 48
50.0
100
AcDbPolyline
 90
        6
 70
     0
 43
0.0
 10
0.0
 20
0.0
 10
5.0
 20
0.0
 10
5.0
 20
15.0
 10
5.0
 20
0.0
 10
-5.0
 20
0.0
 10
-5.0
 20
15.0
  0
LINE
  5
2A1
330
29D
100
AcDbEntity
  8
0
 48
50.0
100
AcDbLine
 10
0.0
 20
-46.875
 30
0.0
 11
0.0
 21
-61.875
 31
0.0
  0
ENDBLK
  5
2A2
330
29D
100
AcDbEntity
  8
0
100
AcDbBlockEnd
  0
BLOCK
  5
2E1
330
2E0
100
AcDbEntity
  8
0
100
AcDbBlockBegin
  2
BALLON_EXPANSION_ECS
 70
     0
 10
0.0
 20
0.0
 30
0.0
  3
BALLON_EXPANSION_ECS
  1
BALLON_EXPANSION_ECS
  0
ELLIPSE
  5
2E2
330
2E0
100
AcDbEntity
  8
TUYAUTERIE_ECS
100
AcDbEllipse
 10
0.0
 20
37.42234332999942
 30
0.0
 11
60.02247794377956
 21
0.0
 31
0.0
210
0.0
220
0.0
230
-1.0
 40
0.6234721493013546
 41
0.0
 42
3.141592653589793
  0
LWPOLYLINE
  5
2E3
330
2E0
100
AcDbEntity
  8
TUYAUTERIE_ECS
100
AcDbPolyline
 90
        4
 70
     1
 43
0.0
 10
-60.02247794377763
 20
37.42234332999942
 10
-60.02247794377763
 20
219.9253530302994
 10
60.02247794378127
 20
219.9253530302994
 10
60.02247794378127
 20
37.42234332999942
  0
ELLIPSE
  5
2E4
330
2E0
100
AcDbEntity
  8
TUYAUTERIE_ECS
100
AcDbEllipse
 10
0.0
 20
219.9253530302994
 30
0.0
 11
60.02247794377956
 21
0.0
 31
0.0
210
0.0
220
0.0
230
1.0
 40
0.6234721493013546
 41
0.0
 42
3.141592653589793
  0
ARC
  5
2E5
330
2E0
100
AcDbEntity
  8
TUYAUTERIE_ECS
 48
50.0
100
AcDbCircle
 10
0.0
 20
161.6250825854695
 30
0.0
 40
38.95206270099123
100
AcDbArc
 50
219.6301743634266
 51
320.3698256365734
  0
ARC
  5
2E6
330
2E0
100
AcDbEntity
  8
TUYAUTERIE_ECS
 48
50.0
100
AcDbCircle
 10
60.0
 20
111.9355187450892
 30
0.0
 40
38.95206270099123
100
AcDbArc
 50
90.0
 51
140.3698256365659
  0
ARC
  5
2E7
330
2E0
100
AcDbEntity
  8
TUYAUTERIE_ECS
 48
50.0
100
AcDbCircle
 10
-55.99303558214888
 20
120.4565749573594
 30
0.0
 40
30.69367882418954
100
AcDbArc
 50
32.12897803619506
 51
97.50119632723775
  0
ENDBLK
  5
2E8
330
2E0
100
AcDbEntity
  8
0
100
AcDbBlockEnd
  0
BLOCK
  5
2EB
330
2EA
100
AcDbEntity
  8
0
100
AcDbBlockBegin
  2
BALLON_ECS
 70
     0
 10
0.0
 20
0.0
 30
0.0
  3
BALLON_ECS
  1
BALLON_ECS
  0
LWPOLYLINE
  5
2EC
330
2EA
100
AcDbEntity
  8
0
100
AcDbPolyline
 90
        4
 70
     1
 43
0.0
 10
-212.6796469248693
 20
689.2688345210154
 10
-212.6796469248693
 20
92.59983658090641
 10
212.6796469248802
 20
92.59983658090641
 10
212.6796469248802
 20
689.2688345210154
  0
ELLIPSE
  5
2ED
330
2EA
100
AcDbEntity
  8
0
100
AcDbEllipse
 10
0.0
 20
689.2688345210154
 30
0.0
 11
212.6796469248743
 21
0.0
 31
0.0
210
0.0
220
0.0
230
1.0
 40
0.4353958543744151
 41
0.0
 42
3.141592653589793
  0
ELLIPSE
  5
2EE
330
2EA
100
AcDbEntity
  8
0
100
AcDbEllipse
 10
0.0
 20
92.59983658090641
 30
0.0
 11
212.6796469248743
 21
0.0
 31
0.0
210
0.0
220
0.0
230
-1.0
 40
0.4353958543744151
 41
0.0
 42
3.141592653589793
  0
LINE
  5
2EF
330
2EA
100
AcDbEntity
  8
0
 62
    84
100
AcDbLine
 10
-79.63608373267198
 20
-167.6072979542259
 30
0.0
 11
-79.63608373267198
 21
9.026434969455295
 31
0.0
  0
LWPOLYLINE
  5
2F0
330
2EA
100
AcDbEntity
  8
0
 62
     1
100
AcDbPolyline
 90
       10
 70
     0
 43
0.0
 10
135.863916267328
 20
282.0264349694553
 10
135.863916267328
 20
282.0264349694553
 10
85.86391626732802
 20
282.0264349694553
 10
-114.136083732672
 20
257.0264349694553
 10
85.86391626732802
 20
232.0264349694553
 10
-114.136083732672
 20
207.0264349694553
 10
85.86391626732802
 20
182.0264349694553
 10
-114.136083732672
 20
157.0264349694553
 10
85.86391626732802
 20
132.0264349694553
 10
85.86391626732802
 20
-55.74034061718339
  0
MTEXT
  5
2F1
330
2EA
100
AcDbEntity
  8
0
100
AcDbMText
 10
-174.636083732672
 20
639.8597683027838
 30
0.0
 40
55.0
 41
424.2987627173461
 71
     1
 72
     5
  1
{Ballon\Pchaudière}
  7
TAILLE_33
1001
ACAD
1000
ACAD_MTEXT_DEFINED_HEIGHT_BEGIN
1070
    46
1040
133.3333333333333
1000
ACAD_MTEXT_DEFINED_HEIGHT_END
  0
LINE
  5
2F2
330
2EA
100
AcDbEntity
  8
0
 62
     1
100
AcDbLine
 10
135.863916267328
 20
282.0264349694553
 30
0.0
 11
135.863916267328
 21
-5.740340617183392
 31
0.0
  0
LINE
  5
2F3
330
2EA
100
AcDbEntity
  8
0
 62
     1
100
AcDbLine
 10
-157.2773054976315
 20
-19.02328939376457
 30
0.0
 11
-157.2773054976315
 21
440.7697064402164
 31
0.0
  0
ENDBLK
  5
2F4
330
2EA
100
AcDbEntity
  8
0
100
AcDbBlockEnd
  0
BLOCK
  5
2F7
330
2F6
100
AcDbEntity
  8
0
100
AcDbBlockBegin
  2
BALLON_ECS_ÉLECTRIQUE
 70
     0
 10
0.0
 20
0.0
 30
0.0
  3
BALLON_ECS_ÉLECTRIQUE
  1
BALLON_ECS_ÉLECTRIQUE
  0
ELLIPSE
  5
2F8
330
2F6
100
AcDbEntity
  8
0
100
AcDbEllipse
 10
-21982.03459328185
 20
18955.74239955156
 30
0.0
 11
212.6796469248743
 21
0.0
 31
0.0
210
0.0
220
0.0
230
1.0
 40
0.4353958543744151
 41
0.0
 42
3.141592653589793
  0
ELLIPSE
  5
2F9
330
2F6
100
AcDbEntity
  8
0
100
AcDbEllipse
 10
-21982.03459328185
 20
18359.07340161145
 30
0.0
 11
212.6796469248743
 21
0.0
 31
0.0
210
0.0
220
0.0
230
-1.0
 40
0.4353958543744151
 41
0.0
 42
3.141592653589793
  0
MTEXT
  5
2FA
330
2F6
100
AcDbEntity
  8
0
100
AcDbMText
 10
-22157.17067701452
 20
18908.0
 30
0.0
 40
55.0
 41
424.2987627173461
 71
     1
 72
     5
  1
{Ballon\Pélectrique}
  7
COTESY
1001
ACAD
1000
ACAD_MTEXT_DEFINED_HEIGHT_BEGIN
1070
    46
1040
133.3333333333333
1000
ACAD_MTEXT_DEFINED_HEIGHT_END
  0
LWPOLYLINE
  5
2FB
330
2F6
100
AcDbEntity
  8
0
100
AcDbPolyline
 90
        4
 70
     1
 43
0.0
 10
-22194.71424020673
 20
18955.74239955156
 10
-22194.71424020673
 20
18359.07340161145
 10
-21769.35494635698
 20
18359.07340161145
 10
-21769.35494635698
 20
18955.74239955156
  0
LINE
  5
2FC
330
2F6
100
AcDbEntity
  8
0
 62
    84
100
AcDbLine
 10
-22098.11861347044
 20
18223.0
 30
0.0
 11
-22098.11861347044
 21
18312.33406287044
 31
0.0
  0
LINE
  5
2FD
330
2F6
100
AcDbEntity
  8
0
 62
     1
100
AcDbLine
 10
-21891.93955221148
 20
18249.51363887964
 30
0.0
 11
-21891.93955221148
 21
18733.05217041309
 31
0.0
  0
ENDBLK
  5
2FE
330
2F6
100
AcDbEntity
  8
0
100
AcDbBlockEnd
  0
BLOCK
  5
301
330
300
100
AcDbEntity
  8
0
100
AcDbBlockBegin
  2
GROUPE_DE_SÉCURITÉ
 70
     0
 10
0.0
 20
0.0
 30
0.0
  3
GROUPE_DE_SÉCURITÉ
  1
GROUPE_DE_SÉCURITÉ
  0
LWPOLYLINE
  5
302
330
300
100
AcDbEntity
  8
0
100
AcDbPolyline
 90
        5
 70
     0
 43
0.0
 10
-22113.74361347044
 20
18140.23426248462
 10
-22082.49361347044
 20
18140.23426248462
 10
-22113.74361347044
 20
18187.10926248462
 10
-22082.49361347044
 20
18187.10926248462
 10
-22113.74361347044
 20
18140.23426248462
  0
LWPOLYLINE
  5
303
330
300
100
AcDbEntity
  8
0
100
AcDbPolyline
 90
        7
 70
     0
 43
0.0
 10
-22098.11861347044
 20
18163.67176248462
 10
-22109.10585058635
 20
18153.79561423965
 10
-22112.9928964563
 20
18174.68848579064
 10
-22118.82346526123
 20
18153.79561423965
 10
-22124.1681533324
 20
18174.9314261575
 10
-22129.99872213733
 20
18153.3097335059
 10
-22134.37164874103
 20
18173.71672432313
  0
LWPOLYLINE
  5
304
330
300
100
AcDbEntity
  8
0
100
AcDbPolyline
 90
        5
 70
     0
 43
0.0
 10
-22074.68111347044
 20
18148.04676248462
 10
-22074.68111347044
 20
18179.29676248462
 10
-22098.11861347044
 20
18163.67176248462
 10
-22098.11861347044
 20
18163.67176248462
 10
-22074.68111347044
 20
18148.04676248462
  0
LWPOLYLINE
  5
305
330
300
100
AcDbEntity
  8
0
100
AcDbPolyline
 90
        5
 70
     0
 43
0.0
 10
-22074.68111347044
 20
18148.04676248462
 10
-22074.68111347044
 20
18179.29676248462
 10
-22051.24361347044
 20
18163.67176248462
 10
-22051.24361347044
 20
18163.67176248462
 10
-22074.68111347044
 20
18148.04676248462
  0
LWPOLYLINE
  5
306
330
300
100
AcDbEntity
  8
0
100
AcDbPolyline
 90
        5
 70
     0
 43
0.0
 10
-22027.80611347044
 20
18148.04676248462
 10
-22027.80611347044
 20
18179.29676248462
 10
-22051.24361347044
 20
18163.67176248462
 10
-22051.24361347044
 20
18163.67176248462
 10
-22027.80611347044
 20
18148.04676248462
  0
ENDBLK
  5
307
330
300
100
AcDbEntity
  8
0
100
AcDbBlockEnd
  0
BLOCK
  5
30E
330
30D
100
AcDbEntity
  8
0
100
AcDbBlockBegin
  2
CHAUDIÈRE_GAZ
 70
     0
 10
0.0
 20
0.0
 30
0.0
  3
CHAUDIÈRE_GAZ
  1
CHAUDIÈRE_GAZ
  0
LWPOLYLINE
  5
30F
330
30D
100
AcDbEntity
  8
TUY_CHAUFFAGE
 62
     7
100
AcDbPolyline
 90
        2
 70
     0
 43
0.0
 10
-137.1250815056519
 20
120.1848200983004
 10
-137.1250815056519
 20
120.0
  0
LWPOLYLINE
  5
310
330
30D
100
AcDbEntity
  8
TUY_CHAUFFAGE
  6
DASHED
 62
     3
 48
50.0
100
AcDbPolyline
 90
        3
 70
     0
 43
0.0
 10
-207.2940546622012
 20
98.54098485959184
 10
-200.0
 20
95.0
 10
-207.4388722671101
 20
91.23592407919932
  0
LWPOLYLINE
  5
311
330
30D
100
AcDbEntity
  8
TUY_CHAUFFAGE
  6
DASHED
 62
     3
 48
50.0
100
AcDbPolyline
 90
        3
 70
     0
 43
0.0
 10
207.2940546622085
 20
98.54098485959184
 10
200.0
 20
95.0
 10
207.4388722671101
 20
91.23592407919932
  0
MTEXT
  5
312
102
{ACAD_XDICTIONARY
360
4CF
102
}
330
30D
100
AcDbEntity
  8
TUYAUTERIE
100
AcDbMText
 10
-210.9129822436298
 20
753.6535904503762
 30
0.0
 40
55.0
 41
424.2987627173461
 71
     1
 72
     5
  1
Chaudière\Pgaz}
  7
COTESY
1001
ACAD
1000
ACAD_MTEXT_DEFINED_HEIGHT_BEGIN
1070
    46
1040
147.6026026026026
1000
ACAD_MTEXT_DEFINED_HEIGHT_END
  0
LWPOLYLINE
  5
313
330
30D
100
AcDbEntity
  8
TUY_CHAUFFAGE
 62
     2
100
AcDbPolyline
 90
        5
 70
     0
 43
0.0
 10
20.0
 20
20.0
 10
0.0
 20
20.0
 10
20.0
 20
50.0
 10
0.0
 20
50.0
 10
20.0
 20
20.0
  0
LWPOLYLINE
  5
314
330
30D
100
AcDbEntity
  8
TUY_CHAUFFAGE
 62
    30
100
AcDbPolyline
 90
        5
 70
   128
 43
0.0
 10
-105.0
 20
20.0
 10
-125.0
 20
20.0
 10
-105.0
 20
50.0
 10
-125.0
 20
50.0
 10
-105.0
 20
20.0
  0
LWPOLYLINE
  5
315
330
30D
100
AcDbEntity
  8
TUY_CHAUFFAGE
 62
     4
100
AcDbPolyline
 90
        5
 70
     0
 43
0.0
 10
185.0
 20
20.0
 10
165.0
 20
20.0
 10
185.0
 20
50.0
 10
165.0
 20
50.0
 10
185.0
 20
20.0
  0
LWPOLYLINE
  5
316
330
30D
100
AcDbEntity
  8
0
100
AcDbPolyline
 90
        4
 70
     1
 43
0.0
 10
-200.0
 20
70.0
 10
-200.0
 20
120.0
 10
200.0
 20
120.0
 10
200.0
 20
70.0
  0
LWPOLYLINE
  5
317
330
30D
100
AcDbEntity
  8
0
100
AcDbPolyline
 90
        4
 70
     1
 43
0.0
 10
-36.8346915562106
 20
102.5464002668596
 10
-36.8346915562106
 20
77.54640026685956
 10
13.1653084437894
 20
77.54640026685956
 10
13.1653084437894
 20
102.5464002668596
  0
LWPOLYLINE
  5
318
330
30D
100
AcDbEntity
  8
0
 48
50.0
100
AcDbPolyline
 90
        6
 70
     1
 43
0.0
 10
-195.0
 20
770.0
 10
-195.0
 20
780.0
 42
-0.414213562373095
 10
-185.0
 20
790.0
 10
185.0
 20
790.0
 42
-0.414213562373095
 10
195.0
 20
780.0
 10
195.0
 20
770.0
  0
LWPOLYLINE
  5
319
330
30D
100
AcDbEntity
  8
0
 48
50.0
100
AcDbPolyline
 90
        4
 70
     1
 43
0.0
 10
-60.0
 20
770.0
 10
-60.0
 20
818.0
 10
60.0
 20
818.0
 10
60.0
 20
770.0
  0
LINE
  5
31A
330
30D
100
AcDbEntity
  8
TUY_CHAUFFAGE
 48
50.0
100
AcDbLine
 10
-200.0
 20
120.0
 30
0.0
 11
-200.0
 21
770.0
 31
0.0
  0
LINE
  5
31B
330
30D
100
AcDbEntity
  8
TUY_CHAUFFAGE
 48
50.0
100
AcDbLine
 10
-200.0
 20
770.0
 30
0.0
 11
200.0
 21
770.0
 31
0.0
  0
LINE
  5
31C
330
30D
100
AcDbEntity
  8
TUY_CHAUFFAGE
 48
50.0
100
AcDbLine
 10
200.0
 20
770.0
 30
0.0
 11
200.0
 21
120.0
 31
0.0
  0
LINE
  5
31D
330
30D
100
AcDbEntity
  8
TUY_CHAUFFAGE
 48
50.0
100
AcDbLine
 10
200.0
 20
120.0
 30
0.0
 11
-200.0
 21
120.0
 31
0.0
  0
LINE
  5
31E
330
30D
100
AcDbEntity
  8
0
100
AcDbLine
 10
-200.0
 20
0.0
 30
0.0
 11
-200.0
 21
70.0
 31
0.0
  0
LINE
  5
31F
330
30D
100
AcDbEntity
  8
0
100
AcDbLine
 10
-200.0
 20
70.0
 30
0.0
 11
200.0
 21
70.0
 31
0.0
  0
LINE
  5
320
330
30D
100
AcDbEntity
  8
0
100
AcDbLine
 10
200.0
 20
70.0
 30
0.0
 11
200.0
 21
0.0
 31
0.0
  0
LINE
  5
321
330
30D
100
AcDbEntity
  8
0
100
AcDbLine
 10
200.0
 20
0.0
 30
0.0
 11
-200.0
 21
0.0
 31
0.0
  0
LWPOLYLINE
  5
322
330
30D
100
AcDbEntity
  8
TUY_CHAUFFAGE
 62
    30
100
AcDbPolyline
 90
        5
 70
   128
 43
0.0
 10
-117.0128674752013
 20
348.663467846327
 10
-117.0128674752013
 20
323.3892573293742
 10
-150.540773905941
 20
323.3892573293742
 10
-150.540773905941
 20
152.546769980534
 10
-115.0
 20
152.546769980534
  0
LWPOLYLINE
  5
323
330
30D
100
AcDbEntity
  8
TUY_CHAUFFAGE
 62
    30
100
AcDbPolyline
 90
        4
 70
   128
 43
0.0
 10
-115.0
 20
50.0
 10
-115.0
 20
279.9275919512656
 10
1.346309310192737
 20
279.9275919512656
 10
1.346309310192737
 20
330.7091167614781
  0
LWPOLYLINE
  5
324
330
30D
100
AcDbEntity
  8
TUYAUTERIE_ECS
100
AcDbPolyline
 90
        4
 70
     1
 43
0.0
 10
-177.035345418979
 20
386.08581117633
 10
-177.035345418979
 20
568.58882087663
 10
-56.99038953142008
 20
568.58882087663
 10
-56.99038953142008
 20
386.08581117633
  0
ARC
  5
325
330
30D
100
AcDbEntity
  8
TUYAUTERIE_ECS
 48
50.0
100
AcDbCircle
 10
-173.0059030573502
 20
469.12004280369
 30
0.0
 40
30.69367882418954
100
AcDbArc
 50
32.12897803619506
 51
97.50119632723775
  0
ELLIPSE
  5
326
330
30D
100
AcDbEntity
  8
TUYAUTERIE_ECS
100
AcDbEllipse
 10
-117.0128674752013
 20
386.08581117633
 30
0.0
 11
60.02247794377956
 21
0.0
 31
0.0
210
0.0
220
0.0
230
-1.0
 40
0.6234721493013546
 41
0.0
 42
3.141592653589793
  0
ARC
  5
327
330
30D
100
AcDbEntity
  8
TUYAUTERIE_ECS
 48
50.0
100
AcDbCircle
 10
-117.0128674752013
 20
510.2885504318001
 30
0.0
 40
38.95206270099123
100
AcDbArc
 50
219.6301743634266
 51
320.3698256365734
  0
ARC
  5
328
330
30D
100
AcDbEntity
  8
TUYAUTERIE_ECS
 48
50.0
100
AcDbCircle
 10
-57.01286747520135
 20
460.5989865914198
 30
0.0
 40
38.95206270099123
100
AcDbArc
 50
90.0
 51
140.3698256365659
  0
ELLIPSE
  5
329
330
30D
100
AcDbEntity
  8
TUYAUTERIE_ECS
100
AcDbEllipse
 10
-117.0128674752013
 20
568.58882087663
 30
0.0
 11
60.02247794377956
 21
0.0
 31
0.0
210
0.0
220
0.0
230
1.0
 40
0.6234721493013546
 41
0.0
 42
3.141592653589793
  0
ENDBLK
  5
32A
330
30D
100
AcDbEntity
  8
0
100
AcDbBlockEnd
  0
BLOCK
  5
32D
330
32C
100
AcDbEntity
  8
0
100
AcDbBlockBegin
  2
RADIATEUR_CHAMBRE_RDC
 70
     0
 10
0.0
 20
0.0
 30
0.0
  3
RADIATEUR_CHAMBRE_RDC
  1
RADIATEUR_CHAMBRE_RDC
  0
MTEXT
  5
32E
330
32C
100
AcDbEntity
  8
TUY_CHAUFFAGE
 48
50.0
100
AcDbMText
 10
-315.7211959928209
 20
488.8793332445894
 30
0.0
 40
50.0
 41
344.4219698434949
 71
     1
 72
     5
  1
{Rad.\PCh.\PRDC}
  7
COTESY
1001
ACAD
1000
ACAD_MTEXT_DEFINED_HEIGHT_BEGIN
1070
    46
1040
217.5175175175175
1000
ACAD_MTEXT_DEFINED_HEIGHT_END
  0
INSERT
  5
32F
330
32C
100
AcDbEntity
  8
TUY_CHAUFFAGE
 48
50.0
100
AcDbBlockReference
  2
TE_REGLAGE
 10
0.0
 20
11.25
 30
0.0
 41
-1.0
  0
LWPOLYLINE
  5
330
330
32C
100
AcDbEntity
  8
TUY_CHAUFFAGE
 48
50.0
100
AcDbPolyline
 90
        4
 70
     1
 43
0.0
 10
-53.4375
 20
11.25
 10
-53.4375
 20
906.25
 10
-353.4375
 20
906.25
 10
-353.4375
 20
11.25
  0
LINE
  5
331
330
32C
100
AcDbEntity
  8
TUY_CHAUFFAGE
 48
50.0
100
AcDbLine
 10
-53.4375
 20
56.25
 30
0.0
 11
-23.4375
 21
56.25
 31
0.0
  0
LWPOLYLINE
  5
332
330
32C
100
AcDbEntity
  8
TUY_CHAUFFAGE
 48
50.0
100
AcDbPolyline
 90
        3
 70
     0
 43
0.0
 10
-353.4375
 20
856.25
 10
-413.4375
 20
856.25
 10
-413.4375
 20
408.3941005880588
  0
INSERT
  5
333
330
32C
100
AcDbEntity
  8
TUY_CHAUFFAGE
 48
50.0
100
AcDbBlockReference
  2
VANNE_REGULATION
 10
-413.4375
 20
348.3941005880588
 30
0.0
 50
90.0
  0
ENDBLK
  5
33D
330
32C
100
AcDbEntity
  8
0
100
AcDbBlockEnd
  0
BLOCK
  5
335
330
334
100
AcDbEntity
  8
0
100
AcDbBlockBegin
  2
VANNE_REGULATION
 70
     0
 10
0.0
 20
0.0
 30
0.0
  3
VANNE_REGULATION
  1
Vanne regulation
  0
INSERT
  5
336
330
334
100
AcDbEntity
  8
TUY_CHAUFFAGE
 48
50.0
100
AcDbBlockReference
  2
VANNE
 10
-8.4375
 20
-0.0000000000000003
 30
0.0
 41
1.25
 42
1.25
 43
1.25
  0
LINE
  5
337
330
334
100
AcDbEntity
  8
TUY_CHAUFFAGE
 48
50.0
100
AcDbLine
 10
15.0
 20
0.0
 30
0.0
 11
15.0
 21
23.4375
 31
0.0
  0
LINE
  5
338
330
334
100
AcDbEntity
  8
TUY_CHAUFFAGE
 48
50.0
100
AcDbLine
 10
-3.75
 20
23.4375
 30
0.0
 11
33.75
 21
23.4375
 31
0.0
  0
ARC
  5
339
330
334
100
AcDbEntity
  8
TUY_CHAUFFAGE
 48
50.0
100
AcDbCircle
 10
15.0
 20
20.15568531427198
 30
0.0
 40
19.03504157157237
100
AcDbArc
 50
9.92791977581234
 51
170.0720802241877
  0
LINE
  5
33A
330
334
100
AcDbEntity
  8
TUY_CHAUFFAGE
 48
50.0
100
AcDbLine
 10
-8.4375
 20
0.0
 30
0.0
 11
-41.25
 21
0.0
 31
0.0
  0
LINE
  5
33B
330
334
100
AcDbEntity
  8
TUY_CHAUFFAGE
 48
50.0
100
AcDbLine
 10
38.4375
 20
0.0
 30
0.0
 11
71.25
 21
0.0
 31
0.0
  0
ENDBLK
  5
33C
330
334
100
AcDbEntity
  8
0
100
AcDbBlockEnd
  0
BLOCK
  5
340
330
33F
100
AcDbEntity
  8
0
100
AcDbBlockBegin
  2
BALLON_D_INJECTION
 70
     0
 10
0.0
 20
0.0
 30
0.0
  3
BALLON_D_INJECTION
  1
BALLON_D_INJECTION
  0
ELLIPSE
  5
341
330
33F
100
AcDbEntity
  8
TUY_CHAUFFAGE
100
AcDbEllipse
 10
-22585.28382119298
 20
18770.62127962611
 30
0.0
 11
88.03296765087673
 21
0.0
 31
0.0
210
0.0
220
0.0
230
1.0
 40
0.5098783415853834
 41
0.0
 42
3.141592653589793
  0
LWPOLYLINE
  5
342
330
33F
100
AcDbEntity
  8
TUY_CHAUFFAGE
100
AcDbPolyline
 90
        4
 70
     1
 43
0.0
 10
-22673.31678884384
 20
18770.62127962611
 10
-22673.31678884384
 20
18502.95019873235
 10
-22497.2508535421
 20
18502.95019873235
 10
-22497.2508535421
 20
18770.62127962611
  0
ELLIPSE
  5
343
330
33F
100
AcDbEntity
  8
TUY_CHAUFFAGE
100
AcDbEllipse
 10
-22585.28382119297
 20
18502.95019873235
 30
0.0
 11
88.03296765087673
 21
0.0
 31
0.0
210
0.0
220
0.0
230
-1.0
 40
0.5098783415853834
 41
0.0
 42
3.141592653589793
  0
MTEXT
  5
344
330
33F
100
AcDbEntity
  8
TUY_CHAUFFAGE
100
AcDbMText
 10
-22662.15680757204
 20
18745.34246665769
 30
0.0
 40
30.0
 41
204.0197484616001
 71
     1
 72
     5
  1
{Bouteille\PInjection}
  7
COTESY
1001
ACAD
1000
ACAD_MTEXT_DEFINED_HEIGHT_BEGIN
1070
    46
1040
80.51051051051051
1000
ACAD_MTEXT_DEFINED_HEIGHT_END
  0
ENDBLK
  5
345
330
33F
100
AcDbEntity
  8
0
100
AcDbBlockEnd
  0
BLOCK
  5
34B
330
34A
100
AcDbEntity
  8
0
100
AcDbBlockBegin
  2
RADIATEUR_BUANDERIE
 70
     0
 10
0.0
 20
0.0
 30
0.0
  3
RADIATEUR_BUANDERIE
  1
RADIATEUR_BUANDERIE
  0
MTEXT
  5
34C
330
34A
100
AcDbEntity
  8
0
100
AcDbMText
 10
-18110.54833090924
 20
22323.01375473239
 30
0.0
 40
55.0
 41
424.2987627173461
 71
     1
 72
     5
  1
{Rad. \PBuan-\P-derie}
  7
COTESY
1001
ACAD
1000
ACAD_MTEXT_DEFINED_HEIGHT_BEGIN
1070
    46
1040
239.2692692692693
1000
ACAD_MTEXT_DEFINED_HEIGHT_END
  0
INSERT
  5
34D
330
34A
100
AcDbEntity
  8
0
 48
50.0
100
AcDbBlockReference
  2
PURGEUR_AIR_AUTOMATIQUE
 10
-18173.45533947909
 20
22374.83810160216
 30
0.0
 41
-1.0
  0
LINE
  5
34E
330
34A
100
AcDbEntity
  8
0
 48
50.0
100
AcDbLine
 10
-18173.45533947909
 20
22374.83810160215
 30
0.0
 11
-18145.01783947909
 21
22374.83810160215
 31
0.0
  0
LINE
  5
34F
330
34A
100
AcDbEntity
  8
TUY_CHAUFFAGE
 48
50.0
100
AcDbLine
 10
-17845.01783947909
 20
22379.52560160216
 30
0.0
 11
-17818.76783947909
 21
22379.52560160216
 31
0.0
  0
LINE
  5
350
330
34A
100
AcDbEntity
  8
TUY_CHAUFFAGE
 48
50.0
100
AcDbLine
 10
-18145.01783947909
 20
22074.83810160216
 30
0.0
 11
-18169.70533947909
 21
22074.83810160216
 31
0.0
  0
LWPOLYLINE
  5
351
330
34A
100
AcDbEntity
  8
TUY_CHAUFFAGE
 48
50.0
100
AcDbPolyline
 90
        4
 70
     1
 43
0.0
 10
-18145.01783947909
 20
22034.52560160216
 10
-18145.01783947909
 20
22429.52560160216
 10
-17845.01783947909
 20
22429.52560160216
 10
-17845.01783947909
 20
22034.52560160216
  0
INSERT
  5
352
330
34A
100
AcDbEntity
  8
TUY_CHAUFFAGE
 48
50.0
100
AcDbBlockReference
  2
TE_REGLAGE
 10
-18188.45533947909
 20
22038.83810160216
 30
0.0
 41
0.8
 42
0.8
 43
0.8
  0
INSERT
  5
353
330
34A
100
AcDbEntity
  8
0
 48
50.0
100
AcDbBlockReference
  2
VANNE_REGUL_ANGLE
 10
-17845.01783947909
 20
22379.52560160216
 30
0.0
  0
ENDBLK
  5
354
330
34A
100
AcDbEntity
  8
0
100
AcDbBlockEnd
  0
ENDSEC
  0
SECTION
  2
ENTITIES
  0
LINE
  5
35A
330
1F
100
AcDbEntity
  8
TUY_CHAUFFAGE
100
AcDbLine
 10
5288.500646402901
 20
3745.95867116403
 30
0.0
 11
3707.001724817041
 21
3745.95867116403
 31
0.0
  0
LINE
  5
35B
330
1F
100
AcDbEntity
  8
TUY_CHAUFFAGE
100
AcDbLine
 10
3707.001724817041
 20
375.9586711640295
 30
0.0
 11
3707.001724817041
 21
2005.95867116403
 31
0.0
  0
LINE
  5
35C
330
1F
100
AcDbEntity
  8
TUY_CHAUFFAGE
100
AcDbLine
 10
5288.500646402901
 20
2055.95867116403
 30
0.0
 11
3707.001724817041
 21
2055.95867116403
 31
0.0
  0
LINE
  5
35D
330
1F
100
AcDbEntity
  8
TUY_CHAUFFAGE
100
AcDbLine
 10
5288.500646402901
 20
2005.95867116403
 30
0.0
 11
3707.001724817041
 21
2005.95867116403
 31
0.0
  0
LINE
  5
35F
330
1F
100
AcDbEntity
  8
TUY_CHAUFFAGE
100
AcDbLine
 10
3657.001724817041
 20
315.9586711640295
 30
0.0
 11
3657.001724817041
 21
2005.95867116403
 31
0.0
  0
LWPOLYLINE
  5
360
330
1F
100
AcDbEntity
  8
TUY_CHAUFFAGE
  6
DASHDOT
 62
     6
 48
100.0
100
AcDbPolyline
 90
        4
 70
     0
 43
0.0
 10
3927.001724817041
 20
4505.085519805689
 10
3927.001724817041
 20
3919.530017823679
 10
4057.001724817041
 20
3722.430017823681
 10
4057.001724817041
 20
3663.95867116403
  0
LWPOLYLINE
  5
361
330
1F
100
AcDbEntity
  8
TUY_CHAUFFAGE
 62
     2
100
AcDbPolyline
 90
        5
 70
     0
 43
0.0
 10
4067.001724817041
 20
2865.95867116403
 10
4067.001724817041
 20
2690.236183058099
 10
4067.001724817041
 20
2690.236183058099
 10
4067.001724817041
 20
1694.698944385302
 10
0.0
 20
1694.698944385302
  0
LWPOLYLINE
  5
362
330
1F
100
AcDbEntity
  8
TUYAUTERIE_ECS
 62
     6
100
AcDbPolyline
 90
        3
 70
     0
 43
0.0
 10
4117.001724817041
 20
2865.95867116403
 10
4117.001724817041
 20
1190.45877769282
 10
2549.52974088235
 20
1190.45877769282
  0
LWPOLYLINE
  5
363
330
1F
100
AcDbEntity
  8
TUYAUTERIE_ECS
 62
     1
100
AcDbPolyline
 90
        3
 70
     0
 43
0.0
 10
4007.001724817041
 20
2865.95867116403
 10
4007.001724817041
 20
1240.45877769282
 10
2499.52974088235
 20
1240.45877769282
  0
LWPOLYLINE
  5
364
330
1F
100
AcDbEntity
  8
TUY_CHAUFFAGE
100
AcDbPolyline
 90
        5
 70
     0
 43
0.0
 10
3998.602480573689
 20
2829.95877769282
 10
3998.602480573689
 20
2784.95877769282
 10
3994.602480573689
 20
2794.95877769282
 10
4002.602480573689
 20
2794.95877769282
 10
3998.602480573689
 20
2784.95877769282
  0
LWPOLYLINE
  5
365
330
1F
100
AcDbEntity
  8
TUY_CHAUFFAGE
 62
     2
100
AcDbPolyline
 90
        5
 70
     0
 43
0.0
 10
4060.07132839668
 20
2785.140985751361
 10
4060.07132839668
 20
2830.140985751361
 10
4064.07132839668
 20
2820.140985751361
 10
4056.07132839668
 20
2820.140985751361
 10
4060.07132839668
 20
2830.140985751361
  0
LWPOLYLINE
  5
366
330
1F
100
AcDbEntity
  8
TUY_CHAUFFAGE
100
AcDbPolyline
 90
        5
 70
     0
 43
0.0
 10
4125.602480573689
 20
2785.95877769282
 10
4125.602480573689
 20
2830.95877769282
 10
4121.602480573689
 20
2820.95877769282
 10
4129.602480573689
 20
2820.95877769282
 10
4125.602480573689
 20
2830.95877769282
  0
LWPOLYLINE
  5
367
330
1F
100
AcDbEntity
  8
TUY_CHAUFFAGE
 62
     4
100
AcDbPolyline
 90
        5
 70
     0
 43
0.0
 10
3873.471364037669
 20
2566.332019915681
 10
3873.471364037669
 20
1780.97249221311
 10
3873.471364037669
 20
1780.97249221311
 10
5028.578562562241
 20
1780.97249221311
 10
352.2049390571883
 20
1780.97249221311
  0
LWPOLYLINE
  5
369
330
1F
100
AcDbEntity
  8
TUYAUTERIE_ECS
 62
    84
100
AcDbPolyline
 90
        4
 70
     0
 43
0.0
 10
2064.602480573689
 20
536.6305401774407
 10
1138.15454411777
 20
536.6305401774407
 10
1138.15454411777
 20
595.9587776928201
 10
1138.15454411777
 20
491.8250447691389
  0
LWPOLYLINE
  5
36A
330
1F
100
AcDbEntity
  8
TUYAUTERIE_ECS
 62
     1
100
AcDbPolyline
 90
        4
 70
     0
 43
0.0
 10
1569.342813528048
 20
1177.444425216701
 10
1569.342813528048
 20
604.1609562907397
 10
1344.333605376731
 20
604.1609562907397
 10
1344.333605376734
 20
622.4724165724583
  0
LWPOLYLINE
  5
36B
330
1F
100
AcDbEntity
  8
TUY_CHAUFFAGE
 62
    30
100
AcDbPolyline
 90
        3
 70
     0
 43
0.0
 10
4913.007165631891
 20
1950.97293017897
 10
4824.061364942401
 20
1950.97293017897
 10
4824.061364942401
 20
2406.98392233103
  0
LWPOLYLINE
  5
36C
330
1F
100
AcDbEntity
  8
TUY_CHAUFFAGE
 62
    30
100
AcDbPolyline
 90
        8
 70
     0
 43
0.0
 10
402.2049390571883
 20
3793.810804160399
 10
402.2049390571883
 20
1880.97293017897
 10
402.2049390571883
 20
1880.97293017897
 10
1172.507439743029
 20
1880.97293017897
 10
1172.507439743029
 20
2417.024670826919
 10
1172.507439743029
 20
1880.97293017897
 10
3507.057073656
 20
1880.97293017897
 10
3507.057073656
 20
3807.95877769282
  0
LWPOLYLINE
  5
36D
330
1F
100
AcDbEntity
  8
TUYAUTERIE_ECS
 62
     1
100
AcDbPolyline
 90
        3
 70
     0
 43
0.0
 10
1569.342813528048
 20
1127.682222313291
 10
1681.294928325471
 20
1127.682222313291
 10
1681.294928325471
 20
1127.682222313291
  0
LWPOLYLINE
  5
36E
330
1F
100
AcDbEntity
  8
TUYAUTERIE_ECS
 62
     1
100
AcDbPolyline
 90
        7
 70
     0
 43
0.0
 10
2434.533135964419
 20
1422.831133014341
 10
2434.533135964419
 20
1422.831133014341
 10
2434.558103669518
 20
671.7337589548697
 10
2434.558103669518
 20
671.7337589548697
 10
2434.558103669518
 20
671.7337589548697
 10
2434.533135964419
 20
1422.831133014341
 10
2434.533135964419
 20
1422.831133014341
  0
LWPOLYLINE
  5
36F
330
1F
100
AcDbEntity
  8
TUY_CHAUFFAGE
100
AcDbPolyline
 90
        5
 70
     0
 43
0.0
 10
3953.102480573689
 20
2829.45877769282
 10
3953.102480573689
 20
2784.45877769282
 10
3949.102480573689
 20
2794.45877769282
 10
3957.102480573689
 20
2794.45877769282
 10
3953.102480573689
 20
2784.45877769282
  0
LWPOLYLINE
  5
370
330
1F
100
AcDbEntity
  8
TUY_CHAUFFAGE
100
AcDbPolyline
 90
        5
 70
     0
 43
0.0
 10
4225.102480573689
 20
2785.95877769282
 10
4225.102480573689
 20
2830.95877769282
 10
4221.102480573689
 20
2820.95877769282
 10
4229.102480573689
 20
2820.95877769282
 10
4225.102480573689
 20
2830.95877769282
  0
LINE
  5
371
330
1F
100
AcDbEntity
  8
TUY_CHAUFFAGE
 62
    30
100
AcDbLine
 10
3942.001724817041
 20
2613.95877769282
 30
0.0
 11
4139.273157588199
 21
2613.958777692831
 31
0.0
  0
MTEXT
  5
372
330
1F
100
AcDbEntity
  8
TUY_CHAUFFAGE
100
AcDbMText
 10
728.8270540435296
 20
2399.312908682212
 30
0.0
 40
60.0
 41
424.2987627173461
 71
     1
 72
     5
  1
{Radiateur\PEntrée}
  7
TAILLE_33
1001
ACAD
1000
ACAD_MTEXT_DEFINED_HEIGHT_BEGIN
1070
    46
1040
161.021021021021
1000
ACAD_MTEXT_DEFINED_HEIGHT_END
  0
MTEXT
  5
373
330
1F
100
AcDbEntity
  8
TUY_CHAUFFAGE
100
AcDbMText
 10
604.7475077533309
 20
4190.95877769282
 30
0.0
 40
55.0
 41
424.2987627173461
 71
     1
 72
     5
  1
{Radiateur Chambre coté rue}
  7
TAILLE_33
1001
ACAD
1000
ACAD_MTEXT_DEFINED_HEIGHT_BEGIN
1070
    46
1040
261.021021021021
1000
ACAD_MTEXT_DEFINED_HEIGHT_END
  0
MTEXT
  5
374
330
1F
100
AcDbEntity
  8
TUY_CHAUFFAGE
100
AcDbMText
 10
3083.954452733291
 20
4293.7448176738
 30
0.0
 40
55.0
 41
452.8590592775381
 71
     1
 72
     5
  1
{Radiateur Chambre\Pcoté  jardin}
  7
TAILLE_33
1001
ACAD
1000
ACAD_MTEXT_DEFINED_HEIGHT_BEGIN
1070
    46
1040
361.021021021021
1000
ACAD_MTEXT_DEFINED_HEIGHT_END
  0
MTEXT
  5
375
330
1F
100
AcDbEntity
  8
TUY_CHAUFFAGE
100
AcDbMText
 10
4447.296689755371
 20
2382.852975740068
 30
0.0
 40
50.0
 41
424.2987627173461
 71
     1
 72
     5
  1
{Rad.\PCuisine}
  7
COTESY
1001
ACAD
1000
ACAD_MTEXT_DEFINED_HEIGHT_BEGIN
1070
    46
1040
134.1841841841842
1000
ACAD_MTEXT_DEFINED_HEIGHT_END
  0
MTEXT
  5
376
330
1F
100
AcDbEntity
  8
TUY_CHAUFFAGE
100
AcDbMText
 10
3040.559050340471
 20
2534.169730219732
 30
0.0
 40
55.0
 41
346.3755735721679
 71
     1
 72
     5
  1
{Radiateur Salle à\Pmanger}
  7
TAILLE_33
1001
ACAD
1000
ACAD_MTEXT_DEFINED_HEIGHT_BEGIN
1070
    46
1040
217.5175175175175
1000
ACAD_MTEXT_DEFINED_HEIGHT_END
  0
LWPOLYLINE
  5
377
330
1F
100
AcDbEntity
  8
TUY_CHAUFFAGE
 62
    30
100
AcDbPolyline
 90
        3
 70
     0
 43
0.0
 10
3507.057073656
 20
3807.95877769282
 10
2409.05263159184
 20
3807.95877769282
 10
2409.05263159184
 20
4240.95877769282
  0
MTEXT
  5
378
330
1F
100
AcDbEntity
  8
TUY_CHAUFFAGE
100
AcDbMText
 10
2503.53414658341
 20
4267.658769821421
 30
0.0
 40
55.0
 41
260.0
 71
     1
 72
     5
  1
{Radiateur\PSDB}
  7
TAILLE_33
1001
ACAD
1000
ACAD_MTEXT_DEFINED_HEIGHT_BEGIN
1070
    46
1040
161.021021021021
1000
ACAD_MTEXT_DEFINED_HEIGHT_END
  0
LWPOLYLINE
  5
37A
330
1F
100
AcDbEntity
  8
TUYAUTERIE_ECS
 62
    84
100
AcDbPolyline
 90
        3
 70
     0
 43
0.0
 10
1518.328605197421
 20
536.6305401774407
 10
1518.328605197421
 20
536.6305401774407
 10
1518.328605197421
 20
1595.04422713014
  0
MTEXT
  5
37B
330
1F
100
AcDbEntity
  8
TUY_CHAUFFAGE
100
AcDbMText
 10
3921.101506191178
 20
2695.067216726849
 30
0.0
 40
40.0
 41
118.9324978283366
 71
     1
 72
     5
  1
{DC}
  7
PETIT
 11
6.123233995736766E-17
 21
1.0
 31
0.0
1001
ACAD
1000
ACAD_MTEXT_DEFINED_HEIGHT_BEGIN
1070
    46
1040
40.68068068068068
1000
ACAD_MTEXT_DEFINED_HEIGHT_END
  0
MTEXT
  5
37C
330
1F
100
AcDbEntity
  8
TUY_CHAUFFAGE
100
AcDbMText
 10
4214.195881587919
 20
2702.145635549841
 30
0.0
 40
40.0
 41
115.2038703866506
 71
     1
 72
     5
  1
{RC}
  7
PETIT
 11
6.123233995736766E-17
 21
1.0
 31
0.0
1001
ACAD
1000
ACAD_MTEXT_DEFINED_HEIGHT_BEGIN
1070
    46
1040
50.0
1000
ACAD_MTEXT_DEFINED_HEIGHT_END
  0
MTEXT
  5
37D
330
1F
100
AcDbEntity
  8
TUY_CHAUFFAGE
100
AcDbMText
 10
3987.641039460152
 20
2697.679687208831
 30
0.0
 40
40.0
 41
0.0
 71
     1
 72
     5
  1
{DP}
  7
PETIT
 11
6.123233995736766E-17
 21
1.0
 31
0.0
1001
ACAD
1000
ACAD_MTEXT_DEFINED_HEIGHT_BEGIN
1070
    46
1040
50.0
1000
ACAD_MTEXT_DEFINED_HEIGHT_END
  0
MTEXT
  5
37E
330
1F
100
AcDbEntity
  8
TUY_CHAUFFAGE
100
AcDbMText
 10
4042.093855943331
 20
2658.910060295038
 30
0.0
 40
40.0
 41
0.0
 71
     1
 72
     5
  1
{Gaz}
  7
PETIT
 11
6.123233995736766E-17
 21
1.0
 31
0.0
1001
ACAD
1000
ACAD_MTEXT_DEFINED_HEIGHT_BEGIN
1070
    46
1040
50.0
1000
ACAD_MTEXT_DEFINED_HEIGHT_END
  0
MTEXT
  5
37F
330
1F
100
AcDbEntity
  8
TUY_CHAUFFAGE
100
AcDbMText
 10
4097.15032206953
 20
2702.020082067531
 30
0.0
 40
40.0
 41
115.2038703866492
 71
     1
 72
     5
  1
{RP}
  7
PETIT
 11
6.123233995736766E-17
 21
1.0
 31
0.0
1001
ACAD
1000
ACAD_MTEXT_DEFINED_HEIGHT_BEGIN
1070
    46
1040
50.0
1000
ACAD_MTEXT_DEFINED_HEIGHT_END
  0
LWPOLYLINE
  5
380
330
1F
100
AcDbEntity
  8
TUY_CHAUFFAGE
 62
     7
100
AcDbPolyline
 90
        4
 70
     1
 43
0.0
 10
4131.662616458379
 20
2364.728158100799
 10
4131.662616458379
 20
2141.64933422114
 10
4202.06112367371
 20
2141.64933422114
 10
4202.06112367371
 20
2364.728158100799
  0
LWPOLYLINE
  5
381
330
1F
100
AcDbEntity
  8
TUY_CHAUFFAGE
 62
   252
100
AcDbPolyline
 90
        4
 70
     0
 43
0.0
 10
4256.191248280022
 20
1969.940272206339
 10
4256.194314009408
 20
2262.579439537301
 10
4256.194314009408
 20
2262.579439537301
 10
4202.06112367371
 20
2284.134071331831
  0
LWPOLYLINE
  5
382
330
1F
100
AcDbEntity
  8
TUY_CHAUFFAGE
 48
50.0
100
AcDbPolyline
 90
        2
 70
     0
 43
0.0
 10
650.9893363952287
 20
1188.466160869601
 10
650.9893363952397
 20
1329.80164633998
  0
LWPOLYLINE
  5
383
330
1F
100
AcDbEntity
  8
TUY_CHAUFFAGE
 62
    84
100
AcDbPolyline
 90
        3
 70
     0
 43
0.0
 10
817.3291598576798
 20
1239.358860545159
 10
817.3291598576798
 20
1239.358860545159
 10
650.9893363952397
 20
1239.358860545159
  0
LWPOLYLINE
  5
384
330
1F
100
AcDbEntity
  8
TUY_CHAUFFAGE
 62
    84
100
AcDbPolyline
 90
        5
 70
     0
 43
0.0
 10
650.9893363952397
 20
831.0228728745096
 10
650.9893363952397
 20
681.2428465531302
 10
650.9893363952397
 20
786.8774826428707
 10
817.3291598576798
 20
786.8774826428707
 10
817.3291598576798
 20
1595.04422713014
  0
LWPOLYLINE
  5
385
330
1F
100
AcDbEntity
  8
TUY_CHAUFFAGE
 48
50.0
100
AcDbPolyline
 90
        3
 70
     0
 43
0.0
 10
639.5425540584401
 20
1351.035343754251
 10
650.9893363952397
 20
1329.80164633998
 10
662.7874253182199
 20
1351.858171055479
  0
LWPOLYLINE
  5
386
330
1F
100
AcDbEntity
  8
TUY_CHAUFFAGE
 62
    84
100
AcDbPolyline
 90
        4
 70
     0
 43
0.0
 10
817.3291598576798
 20
936.8774826428707
 10
817.3291598576798
 20
936.8774826428707
 10
894.4667895321181
 20
936.8774826428707
 10
894.4667895321181
 20
1577.00647375685
  0
LWPOLYLINE
  5
387
330
1F
100
AcDbEntity
  8
TUY_CHAUFFAGE
 62
   252
 48
50.0
100
AcDbPolyline
 90
        2
 70
     0
 43
0.0
 10
650.9893363952397
 20
366.9204867212393
 10
650.9893363952397
 20
651.2428465531302
  0
LWPOLYLINE
  5
388
330
1F
100
AcDbEntity
  8
TUY_CHAUFFAGE
 62
   252
 48
50.0
100
AcDbPolyline
 90
        3
 70
     0
 43
0.0
 10
633.8191628900386
 20
683.0933926745311
 10
650.9893363952397
 20
651.2428465531302
 10
668.68646977971
 20
684.3276336263989
  0
LINE
  5
389
330
1F
100
AcDbEntity
  8
TUY_CHAUFFAGE
 62
    84
100
AcDbLine
 10
894.4667895321181
 20
936.8774826428707
 30
0.0
 11
894.4667895321181
 21
746.1673745651497
 31
0.0
  0
LINE
  5
38A
330
1F
100
AcDbEntity
  8
TUYAUTERIE_ECS
 62
    84
100
AcDbLine
 10
1545.905313528048
 20
1205.881925216701
 30
0.0
 11
1518.328605197421
 21
1205.881925216701
 31
0.0
  0
LWPOLYLINE
  5
38B
330
1F
100
AcDbEntity
  8
TUYAUTERIE_ECS
 62
     1
100
AcDbPolyline
 90
        3
 70
   128
 43
0.0
 10
2161.84153807865
 20
586.5864743604798
 10
1771.433237942449
 20
586.5864743604798
 10
1771.433237942449
 20
673.6024186077302
  0
LWPOLYLINE
  5
38C
330
1F
100
AcDbEntity
  8
TUYAUTERIE_ECS
 62
   252
 48
50.0
100
AcDbPolyline
 90
        3
 70
     0
 43
0.0
 10
1120.984370612568
 20
493.6755908905398
 10
1138.15454411777
 20
461.8250447691389
 10
1155.851677502258
 20
494.9098318423894
  0
LINE
  5
38D
330
1F
100
AcDbEntity
  8
TUYAUTERIE_ECS
 62
   252
 48
50.0
100
AcDbLine
 10
650.9893363952397
 20
366.9204867212393
 30
0.0
 11
2884.335152612519
 21
357.4719267109795
 31
0.0
  0
CIRCLE
  5
38E
330
1F
100
AcDbEntity
  8
TUY_CHAUFFAGE
 62
     4
100
AcDbCircle
 10
894.4667895321181
 20
1780.97249221311
 30
0.0
 40
5.0
  0
MTEXT
  5
38F
330
1F
100
AcDbEntity
  8
TUY_CHAUFFAGE
100
AcDbMText
 10
4813.110194118199
 20
345.5851205769795
 30
0.0
 40
55.0
 41
509.8585532598845
 71
     1
 72
     5
  1
{Vers puisard}
  7
TAILLE_33
1001
ACAD
1000
ACAD_MTEXT_DEFINED_HEIGHT_BEGIN
1070
    46
1040
61.02102102102102
1000
ACAD_MTEXT_DEFINED_HEIGHT_END
  0
LINE
  5
390
330
1F
100
AcDbEntity
  8
TUY_CHAUFFAGE
100
AcDbLine
 10
302.0017248170407
 20
315.9586711640295
 30
0.0
 11
302.0017248170407
 21
2005.95867116403
 31
0.0
  0
LWPOLYLINE
  5
391
330
1F
100
AcDbEntity
  8
TUY_CHAUFFAGE
  6
DASHDOT
 62
     6
 48
100.0
100
AcDbPolyline
 90
        4
 70
     0
 43
0.0
 10
3877.001724817041
 20
4505.085519805689
 10
3877.001724817041
 20
3898.73410246901
 10
4007.001724817041
 20
3701.634102469012
 10
4007.001724817041
 20
3663.95867116403
  0
LWPOLYLINE
  5
392
330
1F
100
AcDbEntity
  8
TUY_CHAUFFAGE
  6
DASHDOT
 62
     6
 48
100.0
100
AcDbPolyline
 90
        4
 70
     0
 43
0.0
 10
3977.001724817041
 20
4505.085519805689
 10
3977.001724817041
 20
3940.325933178348
 10
4107.001724817041
 20
3743.22593317835
 10
4107.001724817041
 20
3663.95867116403
  0
INSERT
  5
393
330
1F
100
AcDbEntity
  8
TUYAUTERIE_ECS
 48
50.0
100
AcDbBlockReference
  2
DISCONNECTEUR
 10
1418.40447365007
 20
1595.044227130142
 30
0.0
 41
1.25
 42
1.25
 43
1.25
 50
360.0
  0
INSERT
  5
394
330
1F
100
AcDbEntity
  8
TUY_CHAUFFAGE
 48
50.0
100
AcDbBlockReference
  2
MANOMETRE
 10
769.1592481264597
 20
796.8774826428707
 30
0.0
 41
1.5
 42
1.5
 43
1.5
  0
INSERT
  5
395
330
1F
100
AcDbEntity
  8
TUY_CHAUFFAGE
 48
50.0
100
AcDbBlockReference
  2
FILTRE
 10
817.3291598576798
 20
811.8774826428707
 30
0.0
 41
1.25
 42
1.25
 43
1.25
 50
90.0
  0
INSERT
  5
396
330
1F
100
AcDbEntity
  8
TUYAUTERIE_ECS
 48
50.0
100
AcDbBlockReference
  2
THERMOMETRE
 10
1569.342813528048
 20
1274.465706399049
 30
0.0
 41
1.5
 42
1.5
 43
1.5
 50
360.0
  0
INSERT
  5
397
330
1F
100
AcDbEntity
  8
TUY_CHAUFFAGE
 48
50.0
100
AcDbBlockReference
  2
THERMOMETRE
 10
2381.91611072802
 20
653.4157748854595
 30
0.0
 41
1.5
 42
1.5
 43
1.5
  0
LINE
  5
398
330
1F
100
AcDbEntity
  8
TUY_CHAUFFAGE
100
AcDbLine
 10
3657.001724817041
 20
315.9586711640295
 30
0.0
 11
2809.001724817041
 21
315.9586711640295
 31
0.0
  0
LWPOLYLINE
  5
399
330
1F
100
AcDbEntity
  8
TUY_CHAUFFAGE
100
AcDbPolyline
 90
        5
 70
     0
 43
0.0
 10
3888.623210185851
 20
2832.22416489285
 10
3888.623210185851
 20
2787.22416489285
 10
3884.623210185851
 20
2797.22416489285
 10
3892.623210185851
 20
2797.22416489285
 10
3888.623210185851
 20
2787.22416489285
  0
LWPOLYLINE
  5
39A
330
1F
100
AcDbEntity
  8
TUY_CHAUFFAGE
 48
50.0
100
AcDbPolyline
 90
        3
 70
     1
 43
0.0
 10
924.9546861966592
 20
1767.778676905909
 10
953.9889289654711
 20
1767.778676905909
 10
953.9889289654711
 20
1773.663996386069
  0
LWPOLYLINE
  5
39B
330
1F
100
AcDbEntity
  8
TUY_CHAUFFAGE
 48
50.0
100
AcDbPolyline
 90
        3
 70
     1
 43
0.0
 10
861.133416801069
 20
1767.778676905909
 10
832.0991740322606
 20
1767.778676905909
 10
832.0991740322606
 20
1773.663996386069
  0
MTEXT
  5
39C
330
1F
100
AcDbEntity
  8
TUY_CHAUFFAGE
100
AcDbMText
 10
416.8037309650281
 20
1546.362585677001
 30
0.0
 40
40.0
 41
424.2987627173461
 71
     1
 72
     5
  1
{Filtre + Polyphosphate}
  7
COTESY
1001
ACAD
1000
ACAD_MTEXT_DEFINED_HEIGHT_BEGIN
1070
    46
1040
107.3473473473474
1000
ACAD_MTEXT_DEFINED_HEIGHT_END
  0
LWPOLYLINE
  5
39D
330
1F
100
AcDbEntity
  8
TUY_CHAUFFAGE
 62
     4
100
AcDbPolyline
 90
        4
 70
     0
 43
0.0
 10
352.2049390571883
 20
1780.97249221311
 10
352.2049390571883
 20
3846.305059258739
 10
518.3313859925292
 20
3846.305059258739
 10
518.3313859925292
 20
3881.906102281511
  0
LWPOLYLINE
  5
39E
330
1F
100
AcDbEntity
  8
TUY_CHAUFFAGE
 62
    30
100
AcDbPolyline
 90
        3
 70
     0
 43
0.0
 10
402.2049390571883
 20
3793.810804160399
 10
1028.331385992529
 20
3793.810804160399
 10
1028.331385992529
 20
4181.906102281511
  0
LWPOLYLINE
  5
39F
330
1F
100
AcDbEntity
  8
TUY_CHAUFFAGE
 62
    30
100
AcDbPolyline
 90
        4
 70
     0
 43
0.0
 10
3286.151878624449
 20
1880.97293017897
 10
3286.151878624449
 20
1948.429252873771
 10
3376.27315758821
 20
1948.429252873771
 10
3376.27315758821
 20
2076.08377769282
  0
LWPOLYLINE
  5
3A0
330
1F
100
AcDbEntity
  8
TUY_CHAUFFAGE
 62
     4
100
AcDbPolyline
 90
        4
 70
     0
 43
0.0
 10
2942.27315758821
 20
1780.97249221311
 10
2942.27315758821
 20
1848.428814907911
 10
3036.27315758821
 20
1848.428814907911
 10
3036.27315758821
 20
2076.08377769282
  0
LINE
  5
3A1
330
1F
100
AcDbEntity
  8
TUY_CHAUFFAGE
 62
     4
100
AcDbLine
 10
497.664203795739
 20
1780.97293017897
 30
0.0
 11
497.664203795739
 21
2644.794091035921
 31
0.0
  0
LINE
  5
3A2
330
1F
100
AcDbEntity
  8
TUY_CHAUFFAGE
 62
     4
100
AcDbLine
 10
642.507439743029
 20
1780.97293017897
 30
0.0
 11
642.507439743029
 21
2117.024670826919
 31
0.0
  0
LINE
  5
3A3
330
1F
100
AcDbEntity
  8
TUY_CHAUFFAGE
 62
    30
100
AcDbLine
 10
4913.007165631891
 20
1950.97293017897
 30
0.0
 11
4913.007165631891
 21
1880.97293017897
 31
0.0
  0
LWPOLYLINE
  5
3A4
330
1F
100
AcDbEntity
  8
TUY_CHAUFFAGE
 62
    30
100
AcDbPolyline
 90
        2
 70
   128
 43
0.0
 10
5028.578562562241
 20
1880.97293017897
 10
3507.057073656
 20
1880.97293017897
  0
INSERT
  5
3A5
330
1F
100
AcDbEntity
  8
TUY_CHAUFFAGE
 48
50.0
100
AcDbBlockReference
  2
BOUCHON
 10
5028.578562562241
 20
1880.97293017897
 30
0.0
  0
INSERT
  5
3A6
330
1F
100
AcDbEntity
  8
TUY_CHAUFFAGE
 48
50.0
100
AcDbBlockReference
  2
BOUCHON
 10
5028.578562562241
 20
1780.97249221311
 30
0.0
  0
LWPOLYLINE
  5
3A7
330
1F
100
AcDbEntity
  8
TUY_CHAUFFAGE
 62
    30
100
AcDbPolyline
 90
        2
 70
   128
 43
0.0
 10
3942.001724817041
 20
2613.95877769282
 10
3942.001724817041
 20
2865.95867116403
  0
LWPOLYLINE
  5
3A8
330
1F
100
AcDbEntity
  8
TUY_CHAUFFAGE
100
AcDbPolyline
 90
        5
 70
     0
 43
0.0
 10
4297.304883858658
 20
2785.95877769282
 10
4297.304883858658
 20
2830.95877769282
 10
4293.304883858658
 20
2820.95877769282
 10
4301.304883858658
 20
2820.95877769282
 10
4297.304883858658
 20
2830.95877769282
  0
LWPOLYLINE
  5
3A9
330
1F
100
AcDbEntity
  8
TUY_CHAUFFAGE
 62
     4
100
AcDbPolyline
 90
        3
 70
     0
 43
0.0
 10
3873.471364037669
 20
2476.332019915681
 10
3822.001724817041
 20
2476.332019915681
 10
3822.001724817041
 20
3852.79687929498
  0
LWPOLYLINE
  5
3AA
330
1F
100
AcDbEntity
  8
TUY_CHAUFFAGE
100
AcDbPolyline
 90
        5
 70
     0
 43
0.0
 10
3810.167548364701
 20
2829.45877769282
 10
3810.167548364701
 20
2784.45877769282
 10
3806.167548364701
 20
2794.45877769282
 10
3814.167548364701
 20
2794.45877769282
 10
3810.167548364701
 20
2784.45877769282
  0
LWPOLYLINE
  5
3AB
330
1F
100
AcDbEntity
  8
TUY_CHAUFFAGE
 62
    30
100
AcDbPolyline
 90
        4
 70
     0
 43
0.0
 10
3507.057073656
 20
3807.95877769282
 10
3507.057073656
 20
3909.820193224579
 10
3007.27315758821
 20
3909.820193224579
 10
3007.27315758821
 20
4290.95877769282
  0
LWPOLYLINE
  5
3AC
330
1F
100
AcDbEntity
  8
TUY_CHAUFFAGE
 62
     4
100
AcDbPolyline
 90
        4
 70
     0
 43
0.0
 10
3558.102480573689
 20
1780.97249221311
 10
3558.102480573689
 20
3960.3669181759
 10
3517.27315758821
 20
3960.3669181759
 10
3517.27315758821
 20
3990.95877769282
  0
LWPOLYLINE
  5
3AD
330
1F
100
AcDbEntity
  8
TUY_CHAUFFAGE
 62
     4
100
AcDbPolyline
 90
        4
 70
     0
 43
0.0
 10
3987.119336157801
 20
2566.33201991567
 10
3987.119336157801
 20
2566.33201991567
 10
4232.001724817041
 20
2566.332019915681
 10
4232.001724817041
 20
2865.95867116403
  0
LWPOLYLINE
  5
3AE
330
1F
100
AcDbEntity
  8
TUY_CHAUFFAGE
 62
     4
100
AcDbPolyline
 90
        9
 70
     0
 43
0.0
 10
4940.052055956421
 20
1780.97249221311
 10
4940.052055956421
 20
1837.795271297189
 10
4940.052055956421
 20
1837.795271297189
 10
4940.052055956421
 20
1780.97249221311
 10
4940.052055956421
 20
1837.795271297189
 10
5237.498864942401
 20
1837.795271297189
 10
5237.498864942401
 20
2126.089821742971
 10
5237.498864942401
 20
1837.795271297189
 10
5237.498864942401
 20
1837.795271297189
  0
LWPOLYLINE
  5
3AF
330
1F
100
AcDbEntity
  8
TUY_CHAUFFAGE
 62
    30
100
AcDbPolyline
 90
        4
 70
     0
 43
0.0
 10
4388.102480573689
 20
1880.97293017897
 10
4388.102480573689
 20
1948.429252873771
 10
4367.72375953745
 20
1948.429252873771
 10
4367.72375953745
 20
2395.70877769282
  0
LWPOLYLINE
  5
3B0
330
1F
100
AcDbEntity
  8
TUY_CHAUFFAGE
 62
     4
100
AcDbPolyline
 90
        4
 70
     0
 43
0.0
 10
4596.539980573689
 20
1780.97249221311
 10
4596.539980573689
 20
1838.429252873771
 10
4766.161259537439
 20
1838.429252873771
 10
4766.16125953745
 20
2105.70877769282
  0
LWPOLYLINE
  5
3B1
330
1F
100
AcDbEntity
  8
TUY_CHAUFFAGE
 48
50.0
100
AcDbPolyline
 90
        4
 70
     1
 43
0.0
 10
4586.539980573689
 20
1792.795271297189
 10
4591.539980573689
 20
1812.795271297189
 10
4601.539980573689
 20
1812.795271297189
 10
4606.539980573689
 20
1792.795271297189
  0
LWPOLYLINE
  5
3B2
330
1F
100
AcDbEntity
  8
TUY_CHAUFFAGE
 48
50.0
100
AcDbPolyline
 90
        4
 70
     1
 43
0.0
 10
2932.27315758821
 20
1795.97249221311
 10
2937.27315758821
 20
1815.97249221311
 10
2947.27315758821
 20
1815.97249221311
 10
2952.27315758821
 20
1795.97249221311
  0
LWPOLYLINE
  5
3B3
330
1F
100
AcDbEntity
  8
TUY_CHAUFFAGE
 48
50.0
100
AcDbPolyline
 90
        4
 70
     1
 43
0.0
 10
3276.151878624449
 20
1895.97293017897
 10
3281.151878624449
 20
1915.97293017897
 10
3291.151878624449
 20
1915.97293017897
 10
3296.151878624449
 20
1895.97293017897
  0
LWPOLYLINE
  5
3B4
330
1F
100
AcDbEntity
  8
TUY_CHAUFFAGE
 48
50.0
100
AcDbPolyline
 90
        4
 70
     1
 43
0.0
 10
1162.507439743029
 20
1890.97293017897
 10
1167.507439743029
 20
1910.97293017897
 10
1177.507439743029
 20
1910.97293017897
 10
1182.507439743029
 20
1890.97293017897
  0
LWPOLYLINE
  5
3B5
330
1F
100
AcDbEntity
  8
TUY_CHAUFFAGE
 48
50.0
100
AcDbPolyline
 90
        4
 70
     1
 43
0.0
 10
632.507439743029
 20
1790.97293017897
 10
637.507439743029
 20
1810.97293017897
 10
647.507439743029
 20
1810.97293017897
 10
652.507439743029
 20
1790.97293017897
  0
LWPOLYLINE
  5
3B6
330
1F
100
AcDbEntity
  8
TUY_CHAUFFAGE
 48
50.0
100
AcDbPolyline
 90
        4
 70
     1
 43
0.0
 10
537.664203795739
 20
1890.97293017897
 10
542.664203795739
 20
1910.97293017897
 10
552.664203795739
 20
1910.97293017897
 10
557.664203795739
 20
1890.97293017897
  0
LWPOLYLINE
  5
3B7
330
1F
100
AcDbEntity
  8
TUY_CHAUFFAGE
 48
50.0
100
AcDbPolyline
 90
        4
 70
     1
 43
0.0
 10
487.664203795739
 20
1790.97293017897
 10
492.664203795739
 20
1810.97293017897
 10
502.664203795739
 20
1810.97293017897
 10
507.664203795739
 20
1790.97293017897
  0
LWPOLYLINE
  5
3B8
330
1F
100
AcDbEntity
  8
TUY_CHAUFFAGE
 48
50.0
100
AcDbPolyline
 90
        4
 70
     1
 43
0.0
 10
392.2049390571883
 20
1890.97293017897
 10
397.2049390571883
 20
1910.97293017897
 10
407.2049390571883
 20
1910.97293017897
 10
412.2049390571883
 20
1890.97293017897
  0
LWPOLYLINE
  5
3B9
330
1F
100
AcDbEntity
  8
TUY_CHAUFFAGE
 48
50.0
100
AcDbPolyline
 90
        4
 70
     1
 43
0.0
 10
342.2049390571883
 20
1790.97249221311
 10
347.2049390571883
 20
1810.97249221311
 10
357.2049390571883
 20
1810.97249221311
 10
362.2049390571883
 20
1790.97249221311
  0
LWPOLYLINE
  5
3BA
330
1F
100
AcDbEntity
  8
TUY_CHAUFFAGE
 48
50.0
100
AcDbPolyline
 90
        4
 70
     1
 43
0.0
 10
3497.057073656
 20
1895.97293017897
 10
3502.057073656
 20
1915.97293017897
 10
3512.057073656
 20
1915.97293017897
 10
3517.057073656
 20
1895.97293017897
  0
LWPOLYLINE
  5
3BB
330
1F
100
AcDbEntity
  8
TUY_CHAUFFAGE
 48
50.0
100
AcDbPolyline
 90
        4
 70
     1
 43
0.0
 10
3548.102480573689
 20
1795.97249221311
 10
3553.102480573689
 20
1815.97249221311
 10
3563.102480573689
 20
1815.97249221311
 10
3568.102480573689
 20
1795.97249221311
  0
LWPOLYLINE
  5
3BC
330
1F
100
AcDbEntity
  8
TUY_CHAUFFAGE
 48
50.0
100
AcDbPolyline
 90
        4
 70
     1
 43
0.0
 10
3521.723759537439
 20
1765.97249221311
 10
3526.723759537439
 20
1745.97249221311
 10
3536.723759537439
 20
1745.97249221311
 10
3541.723759537439
 20
1765.97249221311
  0
LWPOLYLINE
  5
3BD
330
1F
100
AcDbEntity
  8
TUY_CHAUFFAGE
 48
50.0
100
AcDbPolyline
 90
        4
 70
     1
 43
0.0
 10
3460.473759537439
 20
1865.97293017897
 10
3465.473759537439
 20
1845.97293017897
 10
3475.473759537439
 20
1845.97293017897
 10
3480.473759537439
 20
1865.97293017897
  0
LWPOLYLINE
  5
3BE
330
1F
100
AcDbEntity
  8
TUY_CHAUFFAGE
 48
50.0
100
AcDbPolyline
 90
        4
 70
     1
 43
0.0
 10
4378.102480573689
 20
1900.97293017897
 10
4383.102480573689
 20
1920.97293017897
 10
4393.102480573689
 20
1920.97293017897
 10
4398.102480573689
 20
1900.97293017897
  0
INSERT
  5
3BF
330
1F
100
AcDbEntity
  8
TUY_CHAUFFAGE
 48
50.0
100
AcDbBlockReference
  2
BOUCHON
 10
3531.723759537428
 20
449.1642980591314
 30
0.0
 41
1.5625
 42
1.5625
 43
1.5625
 50
270.0
  0
LWPOLYLINE
  5
3C0
330
1F
100
AcDbEntity
  8
TUY_CHAUFFAGE
 62
     4
100
AcDbPolyline
 90
        7
 70
     0
 43
0.0
 10
3531.723759537439
 20
1780.97249221311
 10
3531.723759537439
 20
1691.75184507465
 10
3531.723759537439
 20
1691.75184507465
 10
3531.723759537428
 20
512.8194534148097
 10
3502.001185993639
 20
512.8194534148097
 10
3531.723759537428
 20
512.8194534148097
 10
3531.723759537428
 20
498.5076831776896
  0
LWPOLYLINE
  5
3C1
330
1F
100
AcDbEntity
  8
TUY_CHAUFFAGE
 62
    30
100
AcDbPolyline
 90
        7
 70
     0
 43
0.0
 10
3470.473759537439
 20
1880.97293017897
 10
3470.473759537439
 20
913.0616640593107
 10
2958.251185993639
 20
913.0616640593107
 10
2958.251185993639
 20
883.1319534148097
 10
2958.251185993639
 20
883.1319534148097
 10
2958.251185993639
 20
883.1319534148097
 10
2958.251185993639
 20
883.1319534148097
  0
LWPOLYLINE
  5
3C2
330
1F
100
AcDbEntity
  8
TUY_CHAUFFAGE
100
AcDbPolyline
 90
        5
 70
     0
 43
0.0
 10
904.6670846678608
 20
1329.45769939616
 10
904.6670846678608
 20
1374.45769939616
 10
900.6670846678608
 20
1364.45769939616
 10
908.6670846678608
 20
1364.45769939616
 10
904.6670846678608
 20
1374.45769939616
  0
MTEXT
  5
3C3
330
1F
100
AcDbEntity
  8
TUY_CHAUFFAGE
100
AcDbMText
 10
4372.805771636911
 20
2670.80782255224
 30
0.0
 40
50.0
 41
424.2987627173461
 71
     1
 72
     5
  1
{Trait. Condensats}
  7
COTESY
1001
ACAD
1000
ACAD_MTEXT_DEFINED_HEIGHT_BEGIN
1070
    46
1040
214.6946946946947
1000
ACAD_MTEXT_DEFINED_HEIGHT_END
  0
LINE
  5
3C4
330
1F
100
AcDbEntity
  8
TUY_CHAUFFAGE
 48
50.0
100
AcDbLine
 10
4362.8930660599
 20
2580.4562833155
 30
0.0
 11
4164.529932002861
 21
2332.320479640199
 31
0.0
  0
LWPOLYLINE
  5
3C5
330
1F
100
AcDbEntity
  8
TUY_CHAUFFAGE
 48
50.0
100
AcDbPolyline
 90
        4
 70
     1
 43
0.0
 10
263.7317351807505
 20
250.0
 10
263.7317351807505
 20
4415.085519805689
 10
5322.125945183139
 20
4415.085519805689
 10
5322.125945183139
 20
250.0
  0
LWPOLYLINE
  5
3C7
330
1F
100
AcDbEntity
  8
TUY_CHAUFFAGE
 62
     4
100
AcDbPolyline
 90
        3
 70
     0
 43
0.0
 10
3557.057073656
 20
3857.95877769282
 10
2919.05263159184
 20
3857.95877769282
 10
2919.05263159184
 20
3910.95877769282
  0
INSERT
  5
3C8
330
1F
100
AcDbEntity
  8
TUY_CHAUFFAGE
 48
50.0
100
AcDbBlockReference
  2
VANNE
 10
715.5183455631704
 20
1239.358860545159
 30
0.0
 41
1.25
 42
1.25
 43
1.25
  0
INSERT
  5
3C9
330
1F
100
AcDbEntity
  8
TUY_CHAUFFAGE
 48
50.0
100
AcDbBlockReference
  2
VANNE
 10
687.781455947621
 20
786.8774826428707
 30
0.0
 41
1.25
 42
1.25
 43
1.25
  0
INSERT
  5
3CA
330
1F
100
AcDbEntity
  8
TUYAUTERIE_ECS
 48
50.0
100
AcDbBlockReference
  2
VANNE
 10
1554.173494303501
 20
536.6305401774407
 30
0.0
 41
1.25
 42
1.25
 43
1.25
  0
INSERT
  5
3CB
330
1F
100
AcDbEntity
  8
TUYAUTERIE_ECS
 48
50.0
100
AcDbBlockReference
  2
VANNE
 10
1436.209015130069
 20
536.6305401774407
 30
0.0
 41
1.25
 42
1.25
 43
1.25
  0
INSERT
  5
3CC
330
1F
100
AcDbEntity
  8
TUY_CHAUFFAGE
 48
50.0
100
AcDbBlockReference
  2
VANNE
 10
650.9893363952397
 20
1270.452966424029
 30
0.0
 41
1.25
 42
1.25
 43
1.25
 50
90.0
  0
INSERT
  5
3CD
330
1F
100
AcDbEntity
  8
TUY_CHAUFFAGE
 48
50.0
100
AcDbBlockReference
  2
VANNE
 10
817.3291598576798
 20
1272.79785607717
 30
0.0
 41
1.25
 42
1.25
 43
1.25
 50
90.0
  0
INSERT
  5
3CE
330
1F
100
AcDbEntity
  8
TUY_CHAUFFAGE
 48
50.0
100
AcDbBlockReference
  2
VANNE
 10
817.3291598576798
 20
1158.974912332382
 30
0.0
 41
1.25
 42
1.25
 43
1.25
 50
90.0
  0
INSERT
  5
3CF
330
1F
100
AcDbEntity
  8
TUY_CHAUFFAGE
 48
50.0
100
AcDbBlockReference
  2
VANNE
 10
3531.723759537428
 20
449.1642980591314
 30
0.0
 41
1.25
 42
1.25
 43
1.25
 50
90.0
  0
INSERT
  5
3D0
330
1F
100
AcDbEntity
  8
TUY_CHAUFFAGE
 48
50.0
100
AcDbBlockReference
  2
VANNE
 10
650.9893363952397
 20
704.3726645979987
 30
0.0
 41
1.25
 42
1.25
 43
1.25
 50
90.0
  0
LWPOLYLINE
  5
3D1
330
1F
100
AcDbEntity
  8
TUY_CHAUFFAGE
 62
     7
100
AcDbPolyline
 90
        4
 70
     0
 43
0.0
 10
3899.876643311389
 20
2915.95867116403
 10
3899.876643311389
 20
2386.207177974371
 10
3899.876643311389
 20
2386.207177974371
 10
4131.662616458379
 20
2321.103001208849
  0
INSERT
  5
3D2
330
1F
100
AcDbEntity
  8
TUYAUTERIE_ECS
 48
50.0
100
AcDbBlockReference
  2
VANNE
 10
1603.655313528048
 20
1127.682222313291
 30
0.0
 41
1.25
 42
1.25
 43
1.25
  0
INSERT
  5
3D3
330
1F
100
AcDbEntity
  8
TUYAUTERIE_ECS
 48
50.0
100
AcDbBlockReference
  2
POMPE
 10
2683.06229085835
 20
1530.786853826779
 30
0.0
 41
0.8500000000000001
 42
0.8500000000000001
 43
0.8500000000000001
 50
90.0
  0
INSERT
  5
3D4
330
1F
100
AcDbEntity
  8
TUY_CHAUFFAGE
 48
50.0
100
AcDbBlockReference
  2
SYMB_RADIATEUR_EQUIPE
 10
983.3313859925292
 20
3881.906102281511
 30
0.0
  0
INSERT
  5
3D5
330
1F
100
AcDbEntity
  8
TUY_CHAUFFAGE
 48
50.0
100
AcDbBlockReference
  2
SYMB_RADIATEUR_EQUIPE
 10
2454.05263159184
 20
3910.95877769282
 30
0.0
 41
-1.0
  0
INSERT
  5
3D6
330
1F
100
AcDbEntity
  8
TUY_CHAUFFAGE
 48
50.0
100
AcDbBlockReference
  2
SYMB_RADIATEUR_EQUIPE
 10
3052.27315758821
 20
3960.95877769282
 30
0.0
 41
-1.0
  0
MTEXT
  5
3D7
330
1F
100
AcDbEntity
  8
TUY_CHAUFFAGE
100
AcDbMText
 10
492.9538634317505
 20
3312.44447927201
 30
0.0
 40
55.0
 41
346.3755735721679
 71
     1
 72
     5
  1
{Radiateur Salon}
  7
TAILLE_33
1001
ACAD
1000
ACAD_MTEXT_DEFINED_HEIGHT_BEGIN
1070
    46
1040
161.021021021021
1000
ACAD_MTEXT_DEFINED_HEIGHT_END
  0
LWPOLYLINE
  5
3D8
330
1F
100
AcDbEntity
  8
TUY_CHAUFFAGE
 62
    30
100
AcDbPolyline
 90
        4
 70
     0
 43
0.0
 10
547.664203795739
 20
1880.97293017897
 10
547.664203795739
 20
2609.95877769282
 10
837.664203795739
 20
2609.95877769282
 10
837.664203795739
 20
2644.794091035921
  0
LINE
  5
3D9
330
1F
100
AcDbEntity
  8
TUY_CHAUFFAGE
 48
50.0
100
AcDbLine
 10
3707.001724817041
 20
375.9586711640295
 30
0.0
 11
5288.500646402901
 21
375.9586711640295
 31
0.0
  0
INSERT
  5
3DA
330
1F
100
AcDbEntity
  8
TUY_CHAUFFAGE
 48
50.0
100
AcDbBlockReference
  2
PURGEUR_AIR_AUTOMATIQUE
 10
533.3313859925292
 20
4226.906102281519
 30
0.0
  0
INSERT
  5
3DB
330
1F
100
AcDbEntity
  8
TUY_CHAUFFAGE
 48
50.0
100
AcDbBlockReference
  2
PURGEUR_AIR_AUTOMATIQUE
 10
3502.27315758821
 20
4305.958777692831
 30
0.0
  0
INSERT
  5
3DC
330
1F
100
AcDbEntity
  8
TUY_CHAUFFAGE
 48
50.0
100
AcDbBlockReference
  2
CAPTEUR_TEMPERATURE
 10
2394.924384807779
 20
1246.07783571344
 30
0.0
 41
1.5
 42
1.5
 43
1.5
  0
LINE
  5
3DD
330
1F
100
AcDbEntity
  8
TUY_CHAUFFAGE
 48
50.0
100
AcDbLine
 10
2394.924384807779
 20
1246.07783571344
 30
0.0
 11
2356.918211231241
 21
1246.07783571344
 31
0.0
  0
INSERT
  5
3DE
330
1F
100
AcDbEntity
  8
TUY_CHAUFFAGE
 48
50.0
100
AcDbBlockReference
  2
CAPTEUR_TEMPERATURE
 10
4997.47911396694
 20
4077.401319601959
 30
0.0
 41
1.5
 42
1.5
 43
1.5
  0
MTEXT
  5
3DF
330
1F
100
AcDbEntity
  8
TUY_CHAUFFAGE
100
AcDbMText
 10
4726.769707389289
 20
4323.197299667328
 30
0.0
 40
50.0
 41
804.5
 71
     1
 72
     5
  1
{Température\P extérieure}
  7
TAILLE_33
1001
ACAD
1000
ACAD_MTEXT_DEFINED_HEIGHT_BEGIN
1070
    46
1040
134.1841841841842
1000
ACAD_MTEXT_DEFINED_HEIGHT_END
  0
LWPOLYLINE
  5
3E0
330
1F
100
AcDbEntity
  8
TUY_CHAUFFAGE
  6
DASHED
 62
     3
 48
50.0
100
AcDbPolyline
 90
        4
 70
     0
 43
0.0
 10
3857.001724817041
 20
2940.95867116403
 10
3742.211174239641
 20
2940.95867116403
 10
3742.211174239641
 20
1289.864196178522
 10
2416.13790116764
 20
1289.864196178522
  0
LINE
  5
3E1
330
1F
100
AcDbEntity
  8
TUYAUTERIE_ECS
 62
   252
 48
50.0
100
AcDbLine
 10
1138.15454411777
 20
461.8250447691389
 30
0.0
 11
1138.15454411777
 21
364.9348695469089
 31
0.0
  0
LWPOLYLINE
  5
3E2
330
1F
100
AcDbEntity
  8
TUYAUTERIE_ECS
 62
   252
 48
50.0
100
AcDbPolyline
 90
        3
 70
     0
 43
0.0
 10
2047.432307068491
 20
493.6755908905398
 10
2064.602480573689
 20
461.8250447691389
 10
2082.29961395817
 20
494.9098318423894
  0
LINE
  5
3E3
330
1F
100
AcDbEntity
  8
TUYAUTERIE_ECS
 62
   252
 48
50.0
100
AcDbLine
 10
2064.602480573689
 20
461.8250447691389
 30
0.0
 11
2064.602480573689
 21
361.3860090121998
 31
0.0
  0
INSERT
  5
3E4
330
1F
100
AcDbEntity
  8
TUYAUTERIE_ECS
 48
50.0
100
AcDbBlockReference
  2
VANNE
 10
1569.342813528048
 20
1043.420034111299
 30
0.0
 41
1.25
 42
1.25
 43
1.25
 50
90.0
  0
LWPOLYLINE
  5
3E5
330
1F
100
AcDbEntity
  8
TUY_CHAUFFAGE
100
AcDbPolyline
 90
        5
 70
     0
 43
0.0
 10
839.3040219971081
 20
804.9795863004001
 10
839.3040219971081
 20
849.9795863004001
 10
835.3040219971081
 20
839.9795863004001
 10
843.3040219971081
 20
839.9795863004001
 10
839.3040219971081
 20
849.9795863004001
  0
INSERT
  5
3E6
330
1F
100
AcDbEntity
  8
TUY_CHAUFFAGE
 48
50.0
100
AcDbBlockReference
  2
SEPARATEUR_AIR
 10
4199.965514727399
 20
2613.958777692831
 30
0.0
  0
INSERT
  5
3E7
330
1F
100
AcDbEntity
  8
TUY_CHAUFFAGE
 48
50.0
100
AcDbBlockReference
  2
SYMB_RADIATEUR_VERTICAL
 10
3006.27315758821
 20
2152.95877769282
 30
0.0
  0
INSERT
  5
3E8
330
1F
100
AcDbEntity
  8
TUY_CHAUFFAGE
 48
50.0
100
AcDbBlockReference
  2
TE_DE_REGLAGE
 10
3376.27315758821
 20
2085.45877769282
 30
0.0
 41
1.25
 42
1.25
 43
1.25
 50
90.0
  0
INSERT
  5
3E9
330
1F
100
AcDbEntity
  8
TUY_CHAUFFAGE
 48
50.0
100
AcDbBlockReference
  2
TE_DE_REGLAGE
 10
3036.27315758821
 20
2085.45877769282
 30
0.0
 41
1.25
 42
1.25
 43
1.25
 50
90.0
  0
INSERT
  5
3EA
330
1F
100
AcDbEntity
  8
TUY_CHAUFFAGE
 48
50.0
100
AcDbBlockReference
  2
SYMB_RADIATEUR_VERTICAL
 10
467.664203795739
 20
2721.669091035921
 30
0.0
  0
INSERT
  5
3EB
330
1F
100
AcDbEntity
  8
TUY_CHAUFFAGE
 48
50.0
100
AcDbBlockReference
  2
TE_DE_REGLAGE
 10
497.664203795739
 20
2654.169091035921
 30
0.0
 41
1.25
 42
1.25
 43
1.25
 50
90.0
  0
INSERT
  5
3EC
330
1F
100
AcDbEntity
  8
TUY_CHAUFFAGE
 48
50.0
100
AcDbBlockReference
  2
SEPARATEUR_DE_BOUES
 10
3926.426979018608
 20
2566.33201991567
 30
0.0
  0
LWPOLYLINE
  5
3ED
330
1F
100
AcDbEntity
  8
TUY_CHAUFFAGE
 62
     4
100
AcDbPolyline
 90
        4
 70
     0
 43
0.0
 10
3926.426979018608
 20
2566.332019915681
 10
3873.471364037669
 20
2566.332019915681
 10
3873.471364037669
 20
2566.332019915681
 10
3873.471364037669
 20
2566.332019915681
  0
LWPOLYLINE
  5
3EE
330
1F
100
AcDbEntity
  8
TUY_CHAUFFAGE
 62
    30
100
AcDbPolyline
 90
        4
 70
     0
 43
0.0
 10
4217.817818109121
 20
1880.97293017897
 10
4217.817818109121
 20
2613.95877769282
 10
4199.965514727399
 20
2613.958777692831
 10
4199.965514727399
 20
2613.958777692831
  0
INSERT
  5
3EF
330
1F
100
AcDbEntity
  8
TUY_CHAUFFAGE
 48
50.0
100
AcDbBlockReference
  2
TE_DE_REGLAGE
 10
837.664203795739
 20
2654.169091035921
 30
0.0
 41
1.25
 42
1.25
 43
1.25
 50
90.0
  0
INSERT
  5
3F0
330
1F
100
AcDbEntity
  8
TUY_CHAUFFAGE
 48
50.0
100
AcDbBlockReference
  2
PURGEUR_AIR_AUTOMATIQUE
 10
837.664203795739
 20
3546.669091035928
 30
0.0
  0
INSERT
  5
3F1
330
1F
100
AcDbEntity
  8
TUY_CHAUFFAGE
 48
50.0
100
AcDbBlockReference
  2
PURGEUR_AIR_AUTOMATIQUE
 10
3376.27315758821
 20
2977.95877769282
 30
0.0
  0
INSERT
  5
3F2
330
1F
100
AcDbEntity
  8
TUY_CHAUFFAGE
 48
50.0
100
AcDbBlockReference
  2
SYMBOLE_RADIATEUR
 10
3544.501185993639
 20
512.8194534148097
 30
0.0
 41
-1.0
  0
INSERT
  5
3F3
330
1F
100
AcDbEntity
  8
TUY_CHAUFFAGE
 48
50.0
100
AcDbBlockReference
  2
VANNE_REGUL_ANGLE
 10
3014.501185993639
 20
812.8194534148097
 30
0.0
 41
1.25
 42
1.25
 43
1.25
 50
180.0
  0
INSERT
  5
3F4
330
1F
100
AcDbEntity
  8
TUY_CHAUFFAGE
 48
50.0
100
AcDbBlockReference
  2
TE_DE_REGLAGE
 10
3464.501185993639
 20
512.8194534148097
 30
0.0
 41
1.25
 42
1.25
 43
1.25
 50
360.0
  0
INSERT
  5
3F5
330
1F
100
AcDbEntity
  8
TUY_CHAUFFAGE
 48
50.0
100
AcDbBlockReference
  2
RADIATEUR_ETROIT
 10
19014.93555218326
 20
-17981.17226635733
 30
0.0
  0
LWPOLYLINE
  5
3F6
330
1F
100
AcDbEntity
  8
TUY_CHAUFFAGE
 62
     4
100
AcDbPolyline
 90
        3
 70
     0
 43
0.0
 10
3822.001724817041
 20
3852.79687929498
 10
4097.817818109121
 20
3852.79687929498
 10
4097.817818109121
 20
3917.79687929498
  0
LINE
  5
3F7
330
1F
100
AcDbEntity
  8
TUY_CHAUFFAGE
 48
50.0
100
AcDbLine
 10
3994.56053048743
 20
2566.332019915681
 30
0.0
 11
3994.56053048743
 21
2571.332019915681
 31
0.0
  0
INSERT
  5
3F8
330
1F
100
AcDbEntity
  8
TUY_CHAUFFAGE
 62
     4
100
AcDbBlockReference
  2
UNION
 10
3987.119336157812
 20
2566.332019915681
 30
0.0
  0
INSERT
  5
3F9
330
1F
100
AcDbEntity
  8
TUY_CHAUFFAGE
 62
     4
100
AcDbBlockReference
  2
UNION
 10
3926.426979018601
 20
2566.332019915681
 30
0.0
 41
-1.0
  0
INSERT
  5
3FA
330
1F
100
AcDbEntity
  8
TUY_CHAUFFAGE
 62
    30
100
AcDbBlockReference
  2
UNION
 10
4199.965514727399
 20
2613.958777692831
 30
0.0
  0
INSERT
  5
3FB
330
1F
100
AcDbEntity
  8
TUY_CHAUFFAGE
 62
    30
100
AcDbBlockReference
  2
UNION
 10
4139.273157588199
 20
2613.958777692831
 30
0.0
 41
-1.0
  0
LINE
  5
3FC
330
1F
100
AcDbEntity
  8
TUY_CHAUFFAGE
 48
50.0
100
AcDbLine
 10
4884.061364942401
 20
2956.089821742971
 30
0.0
 11
4854.061364942401
 21
2956.089821742971
 31
0.0
  0
LWPOLYLINE
  5
3FD
330
1F
100
AcDbEntity
  8
TUY_CHAUFFAGE
 48
50.0
100
AcDbPolyline
 90
        4
 70
     1
 43
0.0
 10
3863.471364037669
 20
2466.332019915681
 10
3843.471364037669
 20
2471.332019915681
 10
3843.471364037669
 20
2481.332019915681
 10
3863.471364037669
 20
2486.332019915681
  0
LWPOLYLINE
  5
3FE
330
1F
100
AcDbEntity
  8
TUY_CHAUFFAGE
 62
    30
100
AcDbPolyline
 90
        4
 70
     0
 43
0.0
 10
4287.817818109121
 20
3852.470127415741
 10
4287.817818109121
 20
2490.233273150468
 10
4217.817818109121
 20
2490.233273150468
 10
4217.817818109121
 20
2490.233273150468
  0
LWPOLYLINE
  5
3FF
330
1F
100
AcDbEntity
  8
TUY_CHAUFFAGE
 62
   252
100
AcDbPolyline
 90
        4
 70
     0
 43
0.0
 10
4256.194314009408
 20
2308.525892317561
 10
4256.194314009408
 20
2426.632986757049
 10
4256.194314009408
 20
2426.632986757049
 10
3956.77315758821
 20
2426.632986757049
  0
LWPOLYLINE
  5
400
330
1F
100
AcDbEntity
  8
TUY_CHAUFFAGE
 62
     7
100
AcDbPolyline
 90
        4
 70
     0
 43
0.0
 10
3956.77315758821
 20
2426.632986757049
 10
3956.77315758821
 20
2460.95877769282
 10
3956.77315758821
 20
2460.95877769282
 10
3956.77315758821
 20
2460.95877769282
  0
LWPOLYLINE
  5
401
330
1F
100
AcDbEntity
  8
TUY_CHAUFFAGE
 48
50.0
100
AcDbPolyline
 90
        4
 70
     1
 43
0.0
 10
4227.817818109121
 20
2480.233273150468
 10
4247.817818109121
 20
2485.233273150468
 10
4247.817818109121
 20
2495.233273150468
 10
4227.817818109121
 20
2500.233273150468
  0
MTEXT
  5
402
330
1F
100
AcDbEntity
  8
TUY_CHAUFFAGE
100
AcDbMText
 10
3753.06876161621
 20
533.7259422723582
 30
0.0
 40
60.0
 41
1487.833325553671
 71
     1
 72
     5
  1
{(c) Pierre ROUZEAU CC BY-SA 3.0}
  7
TAILLE_33
1001
ACAD
1000
ACAD_MTEXT_DEFINED_HEIGHT_BEGIN
1070
    46
1040
61.02102102102102
1000
ACAD_MTEXT_DEFINED_HEIGHT_END
  0
INSERT
  5
403
330
1F
100
AcDbEntity
  8
TUY_CHAUFFAGE
 48
50.0
100
AcDbBlockReference
  2
COUDE_DE_REGLAGE
 10
661.257439743029
 20
2162.024670826919
 30
0.0
 41
1.25
 42
1.25
 43
1.25
  0
INSERT
  5
404
330
1F
100
AcDbEntity
  8
TUY_CHAUFFAGE
 48
50.0
100
AcDbBlockReference
  2
VANNE_REGUL_ANGLE
 10
1116.257439743029
 20
2462.024670826919
 30
0.0
 41
1.25
 42
1.25
 43
1.25
  0
LWPOLYLINE
  5
405
330
1F
100
AcDbEntity
  8
TUY_CHAUFFAGE
 48
50.0
100
AcDbPolyline
 90
        4
 70
     1
 43
0.0
 10
687.507439743029
 20
2117.024670826911
 10
687.507439743029
 20
2512.024670826919
 10
1116.257439743029
 20
2512.024670826919
 10
1116.257439743029
 20
2117.024670826911
  0
LINE
  5
406
330
1F
100
AcDbEntity
  8
TUY_CHAUFFAGE
 48
50.0
100
AcDbLine
 10
687.507439743029
 20
2162.024670826919
 30
0.0
 11
665.944939743029
 21
2162.024670826919
 31
0.0
  0
LINE
  5
407
330
1F
100
AcDbEntity
  8
TUY_CHAUFFAGE
 48
50.0
100
AcDbLine
 10
687.507439743029
 20
2462.024670826919
 30
0.0
 11
657.507439743029
 21
2462.024670826919
 31
0.0
  0
LWPOLYLINE
  5
408
330
1F
100
AcDbEntity
  8
TUY_CHAUFFAGE
 62
    30
100
AcDbPolyline
 90
        3
 70
     0
 43
0.0
 10
4287.817818109121
 20
3852.470127415741
 10
4486.217818109119
 20
3852.470127415741
 10
4486.255318109121
 20
4196.23437929498
  0
ARC
  5
409
330
1F
100
AcDbEntity
  8
TUYAUTERIE_ECS
 62
     1
100
AcDbCircle
 10
1756.6587907338
 20
1470.745810238499
 30
0.0
 40
18.161871083864
100
AcDbArc
 50
6.593169163090848
 51
173.4068308369092
  0
LINE
  5
40A
330
1F
100
AcDbEntity
  8
TUYAUTERIE_ECS
 62
     1
100
AcDbLine
 10
1738.617033885101
 20
1472.831133014341
 30
0.0
 11
1518.328605197421
 21
1472.831133014341
 31
0.0
  0
INSERT
  5
40B
330
1F
100
AcDbEntity
  8
TUY_CHAUFFAGE
 48
50.0
100
AcDbBlockReference
  2
CLAPET
 10
816.8627143532794
 20
1379.946189850671
 30
0.0
 41
-1.25
 42
1.25
 43
1.25
 50
89.99999999999977
  0
LWPOLYLINE
  5
40C
330
1F
100
AcDbEntity
  8
TUY_CHAUFFAGE
 48
50.0
100
AcDbPolyline
 90
        4
 70
     1
 43
0.0
 10
4930.052055956421
 20
1790.97249221311
 10
4935.052055956421
 20
1810.97249221311
 10
4945.052055956421
 20
1810.97249221311
 10
4950.052055956421
 20
1790.97249221311
  0
LWPOLYLINE
  5
40D
330
1F
100
AcDbEntity
  8
TUY_CHAUFFAGE
 48
50.0
100
AcDbPolyline
 90
        4
 70
     1
 43
0.0
 10
4903.007165631891
 20
1900.97293017897
 10
4908.007165631891
 20
1920.97293017897
 10
4918.007165631891
 20
1920.97293017897
 10
4923.007165631891
 20
1900.97293017897
  0
LINE
  5
40E
330
1F
100
AcDbEntity
  8
TUYAUTERIE_ECS
 62
     6
100
AcDbLine
 10
4117.001724817041
 20
1190.45877769282
 30
0.0
 11
4209.232188714639
 21
1190.45877769282
 31
0.0
  0
LWPOLYLINE
  5
40F
330
1F
100
AcDbEntity
  8
TUYAUTERIE_ECS
 62
     6
100
AcDbPolyline
 90
        4
 70
     0
 43
0.0
 10
4201.419688714639
 20
1202.17752769282
 10
4217.044688714639
 20
1202.17752769282
 10
4217.044688714639
 20
1178.74002769282
 10
4201.419688714639
 20
1178.74002769282
  0
LINE
  5
410
330
1F
100
AcDbEntity
  8
TUYAUTERIE_ECS
 62
   230
100
AcDbLine
 10
3987.001724817041
 20
1240.45877769282
 30
0.0
 11
4079.232188714639
 21
1240.45877769282
 31
0.0
  0
LWPOLYLINE
  5
411
330
1F
100
AcDbEntity
  8
TUYAUTERIE_ECS
 62
   230
100
AcDbPolyline
 90
        4
 70
     0
 43
0.0
 10
4071.419688714639
 20
1252.17752769282
 10
4087.044688714639
 20
1252.17752769282
 10
4087.044688714639
 20
1228.74002769282
 10
4071.419688714639
 20
1228.74002769282
  0
LWPOLYLINE
  5
412
330
1F
100
AcDbEntity
  8
TUYAUTERIE_ECS
 62
     6
100
AcDbPolyline
 90
        4
 70
     0
 43
0.0
 10
2549.52974088235
 20
603.6920021061815
 10
2549.52974088235
 20
603.6920021061815
 10
2549.52974088235
 20
1190.45877769282
 10
2549.52974088235
 20
603.6920021061815
  0
LWPOLYLINE
  5
413
330
1F
100
AcDbEntity
  8
TUYAUTERIE_ECS
 62
   252
 48
50.0
100
AcDbPolyline
 90
        3
 70
     0
 43
0.0
 10
2257.358952772171
 20
501.2754061822088
 10
2274.529126277372
 20
469.4248600608007
 10
2292.22625966186
 20
502.5096471340585
  0
LINE
  5
414
330
1F
100
AcDbEntity
  8
TUYAUTERIE_ECS
 62
   252
 48
50.0
100
AcDbLine
 10
2274.529126277372
 20
469.4248600608007
 30
0.0
 11
2274.285034490309
 21
360.3471761081091
 31
0.0
  0
LINE
  5
415
330
1F
100
AcDbEntity
  8
TUY_CHAUFFAGE
 62
   252
 48
50.0
100
AcDbLine
 10
3531.723759537428
 20
380.4142980591314
 30
0.0
 11
3531.723759537428
 21
348.1543553618903
 31
0.0
  0
LWPOLYLINE
  5
416
330
1F
100
AcDbEntity
  8
TUY_CHAUFFAGE
 62
   252
 48
50.0
100
AcDbPolyline
 90
        3
 70
     0
 43
0.0
 10
3520.276977200629
 20
401.6479954733986
 10
3531.723759537428
 20
380.4142980591314
 10
3543.521848460419
 20
402.4708227746305
  0
LINE
  5
417
330
1F
100
AcDbEntity
  8
TUY_CHAUFFAGE
 62
   252
 48
50.0
100
AcDbLine
 10
3531.723759537428
 20
348.1543553618903
 30
0.0
 11
3803.675382891532
 21
333.0494874623
 31
0.0
  0
CIRCLE
  5
418
330
1F
100
AcDbEntity
  8
TUYAUTERIE_ECS
 48
50.0
100
AcDbCircle
 10
1518.328605197421
 20
1472.831133014341
 30
0.0
 40
4.0
  0
LWPOLYLINE
  5
419
330
1F
100
AcDbEntity
  8
TUY_CHAUFFAGE
  6
DASHED
 62
     3
 48
50.0
100
AcDbPolyline
 90
        6
 70
     0
 43
0.0
 10
4257.001724817041
 20
2940.95867116403
 10
4327.001724817041
 20
2940.95867116403
 10
4327.001724817041
 20
3804.071947759119
 10
4997.47911396694
 20
3804.071947759119
 10
4997.47911396694
 20
3888.328575129999
 10
4997.47911396694
 20
4077.401319601959
  0
MTEXT
  5
41A
330
1F
100
AcDbEntity
  8
TUY_CHAUFFAGE
100
AcDbMText
 10
580.3536470891886
 20
1301.045945331509
 30
0.0
 40
40.0
 41
105.7008114700584
 71
     1
 72
     5
  1
{\A1;1"}
  7
TAILLE_40
1001
ACAD
1000
ACAD_MTEXT_DEFINED_HEIGHT_BEGIN
1070
    46
1040
40.0
1000
ACAD_MTEXT_DEFINED_HEIGHT_END
  0
MTEXT
  5
41C
330
1F
100
AcDbEntity
  8
TUY_CHAUFFAGE
100
AcDbMText
 10
4167.650646729351
 20
726.0089147996296
 30
0.0
 40
60.0
 41
804.5
 71
     1
 72
     5
  1
{28 Octobre 2016}
  7
COTESY
1001
ACAD
1000
ACAD_MTEXT_DEFINED_HEIGHT_BEGIN
1070
    46
1040
61.02102102102102
1000
ACAD_MTEXT_DEFINED_HEIGHT_END
  0
INSERT
  5
41D
330
1F
100
AcDbEntity
  8
TUYAUTERIE_ECS
 48
50.0
100
AcDbBlockReference
  2
VANNE
 10
2683.06229085835
 20
1363.044572016031
 30
0.0
 41
1.25
 42
1.25
 43
1.25
 50
90.0
  0
INSERT
  5
41E
330
1F
100
AcDbEntity
  8
TUYAUTERIE_ECS
 48
50.0
100
AcDbBlockReference
  2
VANNE
 10
2683.06229085835
 20
1562.7700308413
 30
0.0
 41
1.25
 42
1.25
 43
1.25
 50
90.0
  0
LWPOLYLINE
  5
41F
330
1F
100
AcDbEntity
  8
TUY_CHAUFFAGE
 62
    84
100
AcDbPolyline
 90
        2
 70
     0
 43
0.0
 10
894.4667895321181
 20
1613.089987454241
 10
894.4667895321181
 20
1780.97249221311
  0
INSERT
  5
420
330
1F
100
AcDbEntity
  8
TUYAUTERIE_ECS
 48
50.0
100
AcDbBlockReference
  2
VANNE
 10
1406.944024212751
 20
1595.044227130142
 30
0.0
 41
1.25
 42
1.25
 43
1.25
 50
180.0
  0
INSERT
  5
421
330
1F
100
AcDbEntity
  8
TUYAUTERIE_ECS
 48
50.0
100
AcDbBlockReference
  2
TE_DE_REGLAGE
 10
2541.780710585528
 20
1472.831133014341
 30
0.0
 41
1.25
 42
1.25
 43
1.25
 50
360.0
  0
INSERT
  5
422
330
1F
100
AcDbEntity
  8
TUYAUTERIE_ECS
 48
50.0
100
AcDbBlockReference
  2
TE_DE_REGLAGE
 10
2541.780710585528
 20
1422.831133014341
 30
0.0
 41
1.25
 42
1.25
 43
1.25
 50
359.9999999999998
  0
INSERT
  5
423
330
1F
100
AcDbEntity
  8
TUYAUTERIE_ECS
 48
50.0
100
AcDbBlockReference
  2
SYMBOLE_CLAPET_BATTANT
 10
2516.564842467189
 20
1422.831133014341
 30
0.0
 50
360.0
  0
INSERT
  5
424
330
1F
100
AcDbEntity
  8
TUYAUTERIE_ECS
 48
50.0
100
AcDbBlockReference
  2
SYMBOLE_CLAPET_BATTANT
 10
2516.564842467189
 20
1472.831133014341
 30
0.0
  0
INSERT
  5
425
330
1F
100
AcDbEntity
  8
TUY_CHAUFFAGE
 48
50.0
100
AcDbBlockReference
  2
GROUPE_FILTRATION
 10
488.1223898210592
 20
1595.04422713014
 30
0.0
  0
INSERT
  5
426
330
1F
100
AcDbEntity
  8
TUYAUTERIE_ECS
 48
50.0
100
AcDbBlockReference
  2
MITIGEUR_THERMOSTATIQUE
 10
1569.342813528048
 20
1182.444425216701
 30
0.0
  0
LWPOLYLINE
  5
427
330
1F
100
AcDbEntity
  8
TUYAUTERIE_ECS
 62
     1
100
AcDbPolyline
 90
        4
 70
     0
 43
0.0
 10
1629.20450614447
 20
1267.314478649459
 10
1629.20450614447
 20
1267.314478649459
 10
1756.6587907338
 20
1267.314478649459
 10
1756.6587907338
 20
1651.050726640066
  0
INSERT
  5
428
330
1F
100
AcDbEntity
  8
TUYAUTERIE_ECS
 48
50.0
100
AcDbBlockReference
  2
TE_FEMELLE
 10
1569.342813528048
 20
1127.682222313291
 30
0.0
  0
INSERT
  5
429
330
1F
100
AcDbEntity
  8
TUYAUTERIE_ECS
 48
50.0
100
AcDbBlockReference
  2
TE_FEMELLE
 10
1518.328605197421
 20
536.6305401774407
 30
0.0
 50
90.0
  0
LWPOLYLINE
  5
42A
330
1F
100
AcDbEntity
  8
TUYAUTERIE_ECS
 48
50.0
100
AcDbPolyline
 90
        6
 70
     0
 43
0.0
 10
1518.328605197421
 20
566.6305401774407
 10
1518.328605197421
 20
566.6305401774407
 10
1518.328605197421
 20
551.6305401774407
 10
1518.328605197421
 20
566.6305401774407
 10
1523.328605197421
 20
566.6305401774407
 10
1513.328605197421
 20
566.6305401774407
  0
INSERT
  5
42B
330
1F
100
AcDbEntity
  8
TUY_CHAUFFAGE
 48
50.0
100
AcDbBlockReference
  2
TE_FEMELLE
 10
817.3291598576798
 20
1239.358860545159
 30
0.0
 50
180.0
  0
INSERT
  5
42C
330
1F
100
AcDbEntity
  8
TUYAUTERIE_ECS
 48
50.0
100
AcDbBlockReference
  2
TE_FEMELLE
 10
1569.342813528048
 20
1267.314478649459
 30
0.0
  0
INSERT
  5
42D
330
1F
100
AcDbEntity
  8
TUY_CHAUFFAGE
 48
50.0
100
AcDbBlockReference
  2
TE_FEMELLE
 10
650.9893363952397
 20
786.8774826428707
 30
0.0
  0
INSERT
  5
42E
330
1F
100
AcDbEntity
  8
TUY_CHAUFFAGE
 48
50.0
100
AcDbBlockReference
  2
TE_FEMELLE
 10
650.9893363952397
 20
1239.358860545159
 30
0.0
 41
-1.0
 50
180.0
  0
LINE
  5
42F
330
1F
100
AcDbEntity
  8
TUY_CHAUFFAGE
100
AcDbLine
 10
2759.001724817041
 20
2005.95867116403
 30
0.0
 11
302.0017248170407
 21
2005.95867116403
 31
0.0
  0
LINE
  5
430
330
1F
100
AcDbEntity
  8
TUY_CHAUFFAGE
100
AcDbLine
 10
3657.001724817041
 20
2005.95867116403
 30
0.0
 11
2809.001724817041
 21
2005.95867116403
 31
0.0
  0
LINE
  5
431
330
1F
100
AcDbEntity
  8
TUY_CHAUFFAGE
100
AcDbLine
 10
3707.001724817041
 20
2055.95867116403
 30
0.0
 11
3707.001724817041
 21
3695.95867116403
 31
0.0
  0
LINE
  5
432
330
1F
100
AcDbEntity
  8
TUY_CHAUFFAGE
100
AcDbLine
 10
3657.001724817041
 20
2055.95867116403
 30
0.0
 11
302.0017248170407
 21
2055.95867116403
 31
0.0
  0
LINE
  5
433
330
1F
100
AcDbEntity
  8
TUY_CHAUFFAGE
100
AcDbLine
 10
3657.001724817041
 20
2055.95867116403
 30
0.0
 11
3657.001724817041
 21
3705.95867116403
 31
0.0
  0
LINE
  5
434
330
1F
100
AcDbEntity
  8
TUY_CHAUFFAGE
100
AcDbLine
 10
3657.001724817041
 20
3705.95867116403
 30
0.0
 11
3657.001724817041
 21
3695.95867116403
 31
0.0
  0
LINE
  5
435
330
1F
100
AcDbEntity
  8
TUY_CHAUFFAGE
100
AcDbLine
 10
3657.001724817041
 20
3745.95867116403
 30
0.0
 11
302.0017248170407
 21
3745.95867116403
 31
0.0
  0
LINE
  5
436
330
1F
100
AcDbEntity
  8
TUY_CHAUFFAGE
 48
50.0
100
AcDbLine
 10
3707.001724817041
 20
3695.95867116403
 30
0.0
 11
5288.500646402901
 21
3695.95867116403
 31
0.0
  0
LINE
  5
437
330
1F
100
AcDbEntity
  8
TUY_CHAUFFAGE
100
AcDbLine
 10
3707.001724817041
 20
3745.95867116403
 30
0.0
 11
3707.001724817041
 21
4882.111359643335
 31
0.0
  0
LINE
  5
438
330
1F
100
AcDbEntity
  8
TUY_CHAUFFAGE
100
AcDbLine
 10
302.0017248170407
 20
3745.95867116403
 30
0.0
 11
302.0017248170407
 21
4771.257509317569
 31
0.0
  0
LINE
  5
439
330
1F
100
AcDbEntity
  8
TUY_CHAUFFAGE
 48
50.0
100
AcDbLine
 10
304.3703407253015
 20
3695.95867116403
 30
0.0
 11
302.0017248170407
 21
2055.95867116403
 31
0.0
  0
LINE
  5
43A
330
1F
100
AcDbEntity
  8
TUY_CHAUFFAGE
100
AcDbLine
 10
2759.001724817041
 20
315.9586711640295
 30
0.0
 11
302.0017248170407
 21
315.9586711640295
 31
0.0
  0
LINE
  5
43B
330
1F
100
AcDbEntity
  8
TUY_CHAUFFAGE
 48
50.0
100
AcDbLine
 10
252.0017248170407
 20
4771.257509317569
 30
0.0
 11
252.0017248170407
 21
150.0
 31
0.0
  0
LINE
  5
43D
330
1F
100
AcDbEntity
  8
TUY_CHAUFFAGE
 48
50.0
100
AcDbLine
 10
3657.001724817041
 20
3695.95867116403
 30
0.0
 11
304.3703407253015
 21
3695.95867116403
 31
0.0
  0
INSERT
  5
43E
330
1F
100
AcDbEntity
  8
TUY_CHAUFFAGE
 48
50.0
100
AcDbBlockReference
  2
TE_FEMELLE
 10
769.1592481264597
 20
786.8774826428707
 30
0.0
 50
90.0
  0
INSERT
  5
43F
330
1F
100
AcDbEntity
  8
TUYAUTERIE_ECS
 48
50.0
100
AcDbBlockReference
  2
RACCORD_UNION
 10
2683.06229085835
 20
1424.919572016031
 30
0.0
 41
1.8
 42
1.8
 43
1.8
 50
90.0
  0
INSERT
  5
440
330
1F
100
AcDbEntity
  8
TUYAUTERIE_ECS
 48
50.0
100
AcDbBlockReference
  2
RACCORD_UNION
 10
2683.06229085835
 20
1546.65413563752
 30
0.0
 41
-1.815
 42
1.815
 43
1.815
 50
89.99999999999984
  0
INSERT
  5
441
330
1F
100
AcDbEntity
  8
TUY_CHAUFFAGE
 48
50.0
100
AcDbBlockReference
  2
RACCORD_UNION
 10
817.3291598576798
 20
866.8774826428707
 30
0.0
 50
90.0
  0
INSERT
  5
442
330
1F
100
AcDbEntity
  8
TUY_CHAUFFAGE
 48
50.0
100
AcDbBlockReference
  2
RACCORD_UNION
 10
817.3291598576798
 20
1135.849912332382
 30
0.0
 50
90.0
  0
LWPOLYLINE
  5
443
330
1F
100
AcDbEntity
  8
TUY_CHAUFFAGE
100
AcDbPolyline
 90
        5
 70
     0
 43
0.0
 10
854.4986626337704
 20
849.9795863004001
 10
854.4986626337704
 20
804.9795863004001
 10
850.4986626337704
 20
814.9795863004001
 10
858.4986626337704
 20
814.9795863004001
 10
854.4986626337704
 20
804.9795863004001
  0
LWPOLYLINE
  5
444
330
1F
100
AcDbEntity
  8
TUY_CHAUFFAGE
100
AcDbPolyline
 90
        5
 70
     0
 43
0.0
 10
829.0232091375096
 20
1451.626708442256
 10
829.0232091375096
 20
1406.626708442256
 10
825.0232091375096
 20
1416.626708442256
 10
833.0232091375096
 20
1416.626708442256
 10
829.0232091375096
 20
1406.626708442256
  0
LWPOLYLINE
  5
445
330
1F
100
AcDbEntity
  8
TUY_CHAUFFAGE
 62
     5
100
AcDbPolyline
 90
        4
 70
   128
 43
0.0
 10
488.1223898210592
 20
1595.04422713014
 10
376.0975601651814
 20
1595.04422713014
 10
376.0975601651814
 20
1180.529812372622
 10
376.0975601651814
 20
1595.04422713014
  0
LWPOLYLINE
  5
446
330
1F
100
AcDbEntity
  8
TUYAUTERIE_ECS
 48
50.0
100
AcDbPolyline
 90
        5
 70
   128
 43
0.0
 10
1609.20450614447
 20
1267.314478649459
 10
1629.20450614447
 20
1267.314478649459
 10
1589.20450614447
 20
1267.314478649459
 10
1609.20450614447
 20
1267.314478649459
 10
1609.20450614447
 20
1252.314478649459
  0
LWPOLYLINE
  5
449
330
1F
100
AcDbEntity
  8
TUYAUTERIE_ECS
 48
50.0
100
AcDbPolyline
 90
        7
 70
     0
 43
0.0
 10
1560.990311164831
 20
1164.36871192438
 10
1560.990311164831
 20
1156.573043052042
 10
1577.695315891269
 20
1156.573043052042
 10
1577.695315891269
 20
1164.739934251629
 10
1577.695315891269
 20
1156.573043052042
 10
1569.342813528048
 20
1156.573043052042
 10
1569.342813528048
 20
1147.060692556232
  0
LWPOLYLINE
  5
44A
330
1F
100
AcDbEntity
  8
TUYAUTERIE_ECS
 62
     1
100
AcDbPolyline
 90
        4
 70
     0
 43
0.0
 10
1609.20450614447
 20
1185.439478649459
 10
1609.20450614447
 20
1165.439478649459
 10
1722.509238646129
 20
1165.495911224341
 10
1722.509238646129
 20
1142.707460898098
  0
INSERT
  5
44B
330
1F
100
AcDbEntity
  8
TUYAUTERIE_ECS
 48
50.0
100
AcDbBlockReference
  2
VANNE_MF
 10
1609.20450614447
 20
1247.314478649459
 30
0.0
 50
360.0
  0
LINE
  5
44C
330
1F
100
AcDbEntity
  8
0
 62
   252
 48
50.0
100
AcDbLine
 10
2884.335152612519
 20
357.4719267109795
 30
0.0
 11
2982.084292461815
 21
290.9464267612673
 31
0.0
  0
LINE
  5
44D
330
1F
100
AcDbEntity
  8
TUY_CHAUFFAGE
 48
50.0
100
AcDbLine
 10
2809.001724817041
 20
315.9586711640295
 30
0.0
 11
2809.001724817041
 21
2005.95867116403
 31
0.0
  0
LINE
  5
44E
330
1F
100
AcDbEntity
  8
TUY_CHAUFFAGE
 48
50.0
100
AcDbLine
 10
2759.001724817041
 20
315.9586711640295
 30
0.0
 11
2759.001724817041
 21
2005.95867116403
 31
0.0
  0
LINE
  5
44F
330
1F
100
AcDbEntity
  8
TUYAUTERIE_ECS
 62
     1
100
AcDbLine
 10
2499.52974088235
 20
653.6920021061815
 30
0.0
 11
2499.52974088235
 21
1240.45877769282
 31
0.0
  0
INSERT
  5
450
330
1F
100
AcDbEntity
  8
TUYAUTERIE_ECS
 48
50.0
100
AcDbBlockReference
  2
VANNE
 10
2351.300657450382
 20
453.8310374899811
 30
0.0
 41
1.25
 42
1.25
 43
1.25
  0
LINE
  5
451
330
1F
100
AcDbEntity
  8
TUYAUTERIE_ECS
 62
     1
100
AcDbLine
 10
2434.558103669518
 20
453.8310374899811
 30
0.0
 11
2161.84153807865
 21
453.8310374899811
 31
0.0
  0
LINE
  5
452
330
1F
100
AcDbEntity
  8
TUYAUTERIE_ECS
 62
     1
100
AcDbLine
 10
2434.558103669518
 20
403.8118297224792
 30
0.0
 11
1248.77067273562
 21
403.8118297224792
 31
0.0
  0
LINE
  5
453
330
1F
100
AcDbEntity
  8
TUYAUTERIE_ECS
 62
     1
100
AcDbLine
 10
1248.77067273562
 20
403.8118297224792
 30
0.0
 11
1248.77067273562
 21
595.9587776928201
 31
0.0
  0
LINE
  5
454
330
1F
100
AcDbEntity
  8
TUYAUTERIE_ECS
 62
     1
100
AcDbLine
 10
1248.77067273562
 20
595.9587776928201
 30
0.0
 11
1138.15454411777
 21
595.9587776928201
 31
0.0
  0
INSERT
  5
455
330
1F
100
AcDbEntity
  8
TUYAUTERIE_ECS
 48
50.0
100
AcDbBlockReference
  2
VANNE
 10
2351.300657450382
 20
403.8118297224792
 30
0.0
 41
1.25
 42
1.25
 43
1.25
  0
ARC
  5
456
330
1F
100
AcDbEntity
  8
TUYAUTERIE_ECS
 62
     1
100
AcDbCircle
 10
2434.558103669518
 20
653.6920021061815
 30
0.0
 40
18.04175684869551
100
AcDbArc
 50
90.0
 51
270.0
  0
ARC
  5
457
330
1F
100
AcDbEntity
  8
TUYAUTERIE_ECS
 62
     1
100
AcDbCircle
 10
2434.558103669518
 20
603.6920021061815
 30
0.0
 40
18.04175684869551
100
AcDbArc
 50
90.0
 51
270.0
  0
LINE
  5
458
330
1F
100
AcDbEntity
  8
TUYAUTERIE_ECS
 62
     1
100
AcDbLine
 10
2434.558103669518
 20
585.6502452574787
 30
0.0
 11
2434.558103669518
 21
403.8118297224792
 31
0.0
  0
LINE
  5
459
330
1F
100
AcDbEntity
  8
TUYAUTERIE_ECS
 62
     1
100
AcDbLine
 10
2434.558103669518
 20
635.6502452574787
 30
0.0
 11
2434.558103669518
 21
621.7337589548697
 31
0.0
  0
LINE
  5
45A
330
1F
100
AcDbEntity
  8
TUYAUTERIE_ECS
 62
     6
100
AcDbLine
 10
2230.102480573689
 20
603.6920021061815
 30
0.0
 11
2549.52974088235
 21
603.6920021061815
 31
0.0
  0
LINE
  5
45B
330
1F
100
AcDbEntity
  8
TUYAUTERIE_ECS
 62
     1
100
AcDbLine
 10
2280.102480573689
 20
653.6920021061815
 30
0.0
 11
2499.52974088235
 21
653.6920021061815
 31
0.0
  0
LINE
  5
45C
330
1F
100
AcDbEntity
  8
TUYAUTERIE_ECS
 62
     1
100
AcDbLine
 10
1881.490997630859
 20
640.4090533296003
 30
0.0
 11
1986.961258808729
 21
640.4090533296003
 31
0.0
  0
LINE
  5
45D
330
1F
100
AcDbEntity
  8
TUYAUTERIE_ECS
 62
     1
100
AcDbLine
 10
2161.84153807865
 20
453.8310374899811
 30
0.0
 11
2161.84153807865
 21
626.5419112309792
 31
0.0
  0
LINE
  5
45E
330
1F
100
AcDbEntity
  8
TUY_CHAUFFAGE
 62
   252
 48
50.0
100
AcDbLine
 10
3803.675382891532
 20
333.0494874623
 30
0.0
 11
3803.675382891532
 21
287.8414684552408
 31
0.0
  0
LINE
  5
45F
330
1F
100
AcDbEntity
  8
TUY_CHAUFFAGE
 62
   252
 48
50.0
100
AcDbLine
 10
2982.084292461815
 20
290.9464267612673
 30
0.0
 11
3762.983304855307
 21
293.8602290463177
 31
0.0
  0
LINE
  5
460
330
1F
100
AcDbEntity
  8
TUY_CHAUFFAGE
 48
50.0
100
AcDbLine
 10
3736.706784956921
 20
375.9586711640295
 30
0.0
 11
3736.706784956921
 21
271.6192003470605
 31
0.0
  0
LINE
  5
461
330
1F
100
AcDbEntity
  8
TUY_CHAUFFAGE
 48
50.0
100
AcDbLine
 10
3736.706784956921
 20
271.6192003470605
 30
0.0
 11
3985.417537055058
 21
271.6192003470605
 31
0.0
  0
LINE
  5
462
330
1F
100
AcDbEntity
  8
TUY_CHAUFFAGE
 48
50.0
100
AcDbLine
 10
3985.417537055058
 20
271.6192003470605
 30
0.0
 11
3985.417537055058
 21
375.9586711640295
 31
0.0
  0
LINE
  5
463
330
1F
100
AcDbEntity
  8
0
 62
   252
 48
50.0
100
AcDbLine
 10
3985.417537055058
 20
293.174950000659
 30
0.0
 11
4737.363583718899
 21
279.1097990626695
 31
0.0
  0
MTEXT
  5
468
330
1F
100
AcDbEntity
  8
TUYAUTERIE_ECS
100
AcDbMText
 10
1972.802131095632
 20
1542.273227939473
 30
0.0
 40
40.0
 41
580.4419784050333
 71
     1
 72
     5
  1
{tés réglage radiateur}
  7
TAILLE_33
1001
ACAD
1000
ACAD_MTEXT_DEFINED_HEIGHT_BEGIN
1070
    46
1040
47.89361151864068
1000
ACAD_MTEXT_DEFINED_HEIGHT_END
  0
LINE
  5
469
330
1F
100
AcDbEntity
  8
TUYAUTERIE_ECS
 48
50.0
100
AcDbLine
 10
2493.198387596698
 20
1518.683837191486
 30
0.0
 11
2555.843210585528
 21
1472.831133014341
 31
0.0
  0
LINE
  5
46A
330
1F
100
AcDbEntity
  8
TUYAUTERIE_ECS
 48
50.0
100
AcDbLine
 10
2555.843210585528
 20
1424.393633014341
 30
0.0
 11
2490.339067506033
 21
1502.957576692825
 31
0.0
  0
INSERT
  5
46B
330
1F
100
AcDbEntity
  8
TUYAUTERIE_ECS
 48
50.0
100
AcDbBlockReference
  2
VANNE
 10
2230.102480573689
 20
529.22393204728
 30
0.0
 41
1.25
 42
1.25
 43
1.25
 50
90.0
  0
LINE
  5
46C
330
1F
100
AcDbEntity
  8
TUYAUTERIE_ECS
 62
     1
100
AcDbLine
 10
2280.102480573689
 20
653.6920021061815
 30
0.0
 11
2280.102480573689
 21
621.7337589548697
 31
0.0
  0
LINE
  5
46D
330
1F
100
AcDbEntity
  8
TUYAUTERIE_ECS
 62
     1
100
AcDbLine
 10
2230.102480573689
 20
509.156037717039
 30
0.0
 11
2266.752829391851
 21
509.156037717039
 31
0.0
  0
LINE
  5
46E
330
1F
100
AcDbEntity
  8
TUYAUTERIE_ECS
 62
     1
100
AcDbLine
 10
2280.102480573689
 20
585.6502452574896
 30
0.0
 11
2280.102480573689
 21
496.4435737207896
 31
0.0
  0
LINE
  5
46F
330
1F
100
AcDbEntity
  8
TUYAUTERIE_ECS
 62
     1
100
AcDbLine
 10
1681.294928325471
 20
1127.682222313291
 30
0.0
 11
1681.294928325471
 21
1065.523076190329
 31
0.0
  0
ARC
  5
470
330
1F
100
AcDbEntity
  8
TUYAUTERIE_ECS
 62
     1
100
AcDbCircle
 10
2280.102480573689
 20
603.6920021061815
 30
0.0
 40
18.04175684869551
100
AcDbArc
 50
90.0
 51
270.0
  0
LINE
  5
471
330
1F
100
AcDbEntity
  8
TUYAUTERIE_ECS
 62
     1
100
AcDbLine
 10
2230.102480573689
 20
603.6920021061705
 30
0.0
 11
2230.102480573689
 21
509.156037717039
 31
0.0
  0
LINE
  5
472
330
1F
100
AcDbEntity
  8
TUYAUTERIE_ECS
 62
     1
100
AcDbLine
 10
2609.280710585528
 20
1422.831133014341
 30
0.0
 11
2434.533135964419
 21
1422.831133014341
 31
0.0
  0
LWPOLYLINE
  5
473
330
1F
100
AcDbEntity
  8
TUY_CHAUFFAGE
 48
50.0
100
AcDbPolyline
 90
        3
 70
     1
 43
0.0
 10
2596.610149302949
 20
1767.778676905909
 10
2567.575906534141
 20
1767.778676905909
 10
2567.575906534141
 20
1773.663996386069
  0
LWPOLYLINE
  5
474
330
1F
100
AcDbEntity
  8
TUY_CHAUFFAGE
 48
50.0
100
AcDbPolyline
 90
        3
 70
     1
 43
0.0
 10
2600.56939240768
 20
1767.778676905909
 10
2571.535149638868
 20
1767.778676905909
 10
2571.535149638868
 20
1773.663996386069
  0
LWPOLYLINE
  5
475
330
1F
100
AcDbEntity
  8
TUY_CHAUFFAGE
 48
50.0
100
AcDbPolyline
 90
        3
 70
     1
 43
0.0
 10
2352.28512632013
 20
629.7174342352191
 10
2323.250883551318
 20
629.7174342352191
 10
2323.250883551318
 20
635.6027537153786
  0
LINE
  5
476
330
1F
100
AcDbEntity
  8
TUYAUTERIE_ECS
 62
     1
100
AcDbLine
 10
2064.602480573689
 20
626.5419112309792
 30
0.0
 11
2161.84153807865
 21
626.5419112309792
 31
0.0
  0
LWPOLYLINE
  5
479
330
1F
100
AcDbEntity
  8
TUYAUTERIE_ECS
 62
     1
100
AcDbPolyline
 90
        2
 70
     0
 43
0.0
 10
2609.280710585528
 20
1472.831133014341
 10
1774.700547582499
 20
1472.831133014341
  0
LINE
  5
47A
330
1F
100
AcDbEntity
  8
TUYAUTERIE_ECS
 62
     1
100
AcDbLine
 10
2609.280710585528
 20
1327.258412587562
 30
0.0
 11
2609.280710585528
 21
1472.831133014341
 31
0.0
  0
MTEXT
  5
47B
330
1F
100
AcDbEntity
  8
TUY_CHAUFFAGE
100
AcDbMText
 10
1028.095149569942
 20
3562.129211051148
 30
0.0
 40
48.0
 41
1957.835578821854
 71
     1
 72
     5
  3
{- La chaudière n'a pas été mise à la cave car celle-ci est inondable.\PSi le ballon est inondé, ce n'est pas trop grave, le plus gros risque est pour le capteur de température. D'ou la distance inusitée (~8m )entre le ballon et la chaudière\P- Tuya
  3
uterie cuivre, deux tailles de tuyaux seulement, comme les anglo-saxons. 22 sur les départs et 16 après les réductions (en UK, les tailles c'est 15 et 22)\PBrasure tendre uniquement, etain-argent (3.5%)sur eau potable et chauffage.\PGaz en brasure f
  1
orte fait par un professionnel}
  7
TAILLE_33
1001
ACAD
1000
ACAD_MTEXT_DEFINED_HEIGHT_BEGIN
1070
    46
1040
848.8168168168169
1000
ACAD_MTEXT_DEFINED_HEIGHT_END
  0
LWPOLYLINE
  5
47E
330
1F
100
AcDbEntity
  8
TUY_CHAUFFAGE
 62
   252
 48
50.0
100
AcDbPolyline
 90
        3
 70
     0
 43
0.0
 10
4239.024140504211
 20
2314.429985658699
 10
4256.194314009408
 20
2282.579439537301
 10
4273.8914473939
 20
2315.664226610552
  0
LINE
  5
47F
330
1F
100
AcDbEntity
  8
TUY_CHAUFFAGE
 62
   252
100
AcDbLine
 10
4256.194314009408
 20
2282.579439537301
 30
0.0
 11
4256.194314009408
 21
2262.579439537301
 31
0.0
  0
LINE
  5
480
330
1F
100
AcDbEntity
  8
TUYAUTERIE_ECS
 62
     1
100
AcDbLine
 10
1681.294928325471
 20
1065.523076190329
 30
0.0
 11
1881.490997630859
 21
1065.523076190329
 31
0.0
  0
LINE
  5
481
330
1F
100
AcDbEntity
  8
TUYAUTERIE_ECS
 62
     1
100
AcDbLine
 10
1881.490997630859
 20
1065.523076190329
 30
0.0
 11
1881.490997630859
 21
640.4090533296003
 31
0.0
  0
INSERT
  5
482
330
1F
100
AcDbEntity
  8
TUYAUTERIE_ECS
 48
50.0
100
AcDbBlockReference
  2
TE_FEMELLE
 10
2064.602480573689
 20
626.5419112309792
 30
0.0
 50
360.0
  0
LWPOLYLINE
  5
483
330
1F
100
AcDbEntity
  8
0
 48
50.0
100
AcDbPolyline
 90
        5
 70
     0
 43
0.0
 10
2064.602480573689
 20
591.5419112309792
 10
2064.602480573689
 20
614.4986194972407
 10
2064.602480573689
 20
601.5419112309792
 10
2069.602480573689
 20
601.5419112309792
 10
2059.602480573689
 20
601.5419112309792
  0
INSERT
  5
484
330
1F
100
AcDbEntity
  8
TUYAUTERIE_ECS
 48
50.0
100
AcDbBlockReference
  2
TE_FEMELLE
 10
1138.15454411777
 20
595.9587776928201
 30
0.0
 50
360.0
  0
LWPOLYLINE
  5
485
330
1F
100
AcDbEntity
  8
0
 48
50.0
100
AcDbPolyline
 90
        5
 70
     0
 43
0.0
 10
1138.15454411777
 20
555.9587776928201
 10
1138.15454411777
 20
583.9154859590817
 10
1138.15454411777
 20
570.9587776928201
 10
1143.15454411777
 20
570.9587776928201
 10
1133.15454411777
 20
570.9587776928201
  0
INSERT
  5
486
330
1F
100
AcDbEntity
  8
TUYAUTERIE_ECS
 48
50.0
100
AcDbBlockReference
  2
VANNE
 10
2280.102480573689
 20
529.22393204728
 30
0.0
 41
1.25
 42
1.25
 43
1.25
 50
90.0
  0
LINE
  5
487
330
1F
100
AcDbEntity
  8
TUYAUTERIE_ECS
 62
     1
100
AcDbLine
 10
2266.752829391851
 20
509.156037717039
 30
0.0
 11
2266.752829391851
 21
497.005203774952
 31
0.0
  0
INSERT
  5
488
330
1F
100
AcDbEntity
  8
TUYAUTERIE_ECS
 48
50.0
100
AcDbBlockReference
  2
BALLON_EXPANSION_ECS
 10
1771.433237942449
 20
673.6024186077302
 30
0.0
  0
INSERT
  5
489
330
1F
100
AcDbEntity
  8
TUYAUTERIE_ECS
 48
50.0
100
AcDbBlockReference
  2
BALLON_ECS
 10
2144.238564306361
 20
659.4323427233649
 30
0.0
  0
INSERT
  5
48A
330
1F
100
AcDbEntity
  8
TUYAUTERIE_ECS
 48
50.0
100
AcDbBlockReference
  2
BALLON_ECS_ÉLECTRIQUE
 10
23236.27315758821
 20
-17627.04122230718
 30
0.0
  0
INSERT
  5
48B
330
1F
100
AcDbEntity
  8
TUYAUTERIE_ECS
 48
50.0
100
AcDbBlockReference
  2
GROUPE_DE_SÉCURITÉ
 10
23236.27315758821
 20
-17627.04122230718
 30
0.0
  0
INSERT
  5
48C
330
1F
100
AcDbEntity
  8
TUYAUTERIE_ECS
 48
50.0
100
AcDbBlockReference
  2
GROUPE_DE_SÉCURITÉ
 10
-20033.51613289675
 20
-17627.04122230718
 30
0.0
 41
-1.0
  0
INSERT
  5
48D
330
1F
100
AcDbEntity
  8
TUY_CHAUFFAGE
 48
50.0
100
AcDbBlockReference
  2
BOUCHON
 10
894.4667895321181
 20
746.1673745651497
 30
0.0
 41
1.5625
 42
1.5625
 43
1.5625
 50
270.0
  0
LWPOLYLINE
  5
48E
330
1F
100
AcDbEntity
  8
TUYAUTERIE_ECS
 62
    84
100
AcDbPolyline
 90
        2
 70
     0
 43
0.0
 10
1518.328605197421
 20
1595.04422713014
 10
817.3291598576798
 20
1595.04422713014
  0
LINE
  5
48F
330
1F
100
AcDbEntity
  8
TUY_CHAUFFAGE
 62
    84
100
AcDbLine
 10
817.3291598576798
 20
1595.04422713014
 30
0.0
 11
688.0427428961884
 21
1595.04422713014
 31
0.0
  0
INSERT
  5
490
330
1F
100
AcDbEntity
  8
TUY_CHAUFFAGE
 48
50.0
100
AcDbBlockReference
  2
CHAUDIÈRE_GAZ
 10
4057.001724817041
 20
2845.95867116403
 30
0.0
  0
INSERT
  5
491
330
1F
100
AcDbEntity
  8
TUY_CHAUFFAGE
 48
50.0
100
AcDbBlockReference
  2
RADIATEUR_CHAMBRE_RDC
 10
5237.498864942401
 20
2099.839821742971
 30
0.0
  0
INSERT
  5
492
330
1F
100
AcDbEntity
  8
TUY_CHAUFFAGE
 48
50.0
100
AcDbBlockReference
  2
BALLON_D_INJECTION
 10
23236.27315758821
 20
-17627.04122230718
 30
0.0
  0
LWPOLYLINE
  5
493
330
1F
100
AcDbEntity
  8
TUYAUTERIE_ECS
 62
     1
100
AcDbPolyline
 90
        3
 70
     0
 43
0.0
 10
2683.06229085835
 20
1642.831133014341
 10
2683.06229085835
 20
1327.258412587562
 10
2609.280710585528
 20
1327.258412587562
  0
MTEXT
  5
494
330
1F
100
AcDbEntity
  8
TUYAUTERIE_ECS
100
AcDbMText
 10
1602.134085977203
 20
1663.282206343803
 30
0.0
 40
40.0
 41
169.2834770474401
 71
     1
 72
     5
  1
{Sortie \PECS}
  7
TAILLE_33
1001
ACAD
1000
ACAD_MTEXT_DEFINED_HEIGHT_BEGIN
1070
    46
1040
116.9277624966853
1000
ACAD_MTEXT_DEFINED_HEIGHT_END
  0
MTEXT
  5
495
330
1F
100
AcDbEntity
  8
TUYAUTERIE_ECS
100
AcDbMText
 10
2362.165755462116
 20
1665.263536693816
 30
0.0
 40
40.0
 41
301.1221470481796
 71
     1
 72
     5
  1
{Retour boucle ECS}
  7
TAILLE_33
1001
ACAD
1000
ACAD_MTEXT_DEFINED_HEIGHT_BEGIN
1070
    46
1040
168.4399319963668
1000
ACAD_MTEXT_DEFINED_HEIGHT_END
  0
INSERT
  5
496
330
1F
100
AcDbEntity
  8
TUY_CHAUFFAGE
 48
50.0
100
AcDbBlockReference
  2
RADIATEUR_BUANDERIE
 10
22286.27315758821
 20
-18127.04122230718
 30
0.0
  0
LINE
  5
497
330
1F
100
AcDbEntity
  8
TUY_CHAUFFAGE
100
AcDbLine
 10
3657.001724817041
 20
3745.95867116403
 30
0.0
 11
3657.001724817041
 21
4883.31621452752
 31
0.0
  0
MTEXT
  5
49A
330
1F
100
AcDbEntity
  8
TUY_CHAUFFAGE
100
AcDbMText
 10
347.3002017771448
 20
1145.235585452137
 30
0.0
 40
40.0
 41
424.2987627173461
 71
     1
 72
     5
  1
{Eau\Pfroide}
  7
COTESY
1001
ACAD
1000
ACAD_MTEXT_DEFINED_HEIGHT_BEGIN
1070
    46
1040
107.3473473473474
1000
ACAD_MTEXT_DEFINED_HEIGHT_END
  0
ARC
  5
4A5
330
1F
100
AcDbEntity
  8
TUY_CHAUFFAGE
 62
    84
100
AcDbCircle
 10
894.4667895321181
 20
1595.048230605542
 30
0.0
 40
18.04175684869551
100
AcDbArc
 50
90.0
 51
270.0
  0
LWPOLYLINE
  5
4AE
330
1F
100
AcDbEntity
  8
TUYAUTERIE_ECS
 62
   252
 48
50.0
100
AcDbPolyline
 90
        3
 70
     0
 43
0.0
 10
1705.339065140932
 20
1144.558007019499
 10
1722.509238646129
 20
1112.707460898098
 10
1740.206372030611
 20
1145.792247971349
  0
LINE
  5
4AF
330
1F
100
AcDbEntity
  8
TUYAUTERIE_ECS
 62
   252
 48
50.0
100
AcDbLine
 10
1722.509238646129
 20
1112.707460898098
 30
0.0
 11
1722.509238646129
 21
1012.268425141159
 31
0.0
  0
LWPOLYLINE
  5
4B0
330
1F
100
AcDbEntity
  8
TUYAUTERIE_ECS
 62
   252
 48
50.0
100
AcDbPolyline
 90
        3
 70
   128
 43
0.0
 10
1722.509238646129
 20
1012.268425141159
 10
1664.378575529491
 20
1012.268425141159
 10
1664.378575529491
 20
362.5697062154584
  0
INSERT
  5
4B4
330
1F
100
AcDbEntity
  8
TUY_CHAUFFAGE
 48
50.0
100
AcDbBlockReference
  2
PURGEUR_AIR_AUTOMATIQUE
 10
657.507439743029
 20
2462.024670826926
 30
0.0
  0
MTEXT
  5
4B6
330
1F
100
AcDbEntity
  8
TUY_CHAUFFAGE
100
AcDbMText
 10
347.3002017771448
 20
1749.631233265347
 30
0.0
 40
40.0
 41
424.2987627173461
 71
     1
 72
     5
  1
{Gaz}
  7
COTESY
1001
ACAD
1000
ACAD_MTEXT_DEFINED_HEIGHT_BEGIN
1070
    46
1040
40.68068068068068
1000
ACAD_MTEXT_DEFINED_HEIGHT_END
  0
LINE
  5
4B7
330
1F
100
AcDbEntity
  8
TUYAUTERIE
100
AcDbLine
 10
5288.500646402901
 20
375.9586711640295
 30
0.0
 11
5288.500646402901
 21
2005.958671164029
 31
0.0
  0
LINE
  5
4B8
330
1F
100
AcDbEntity
  8
TUYAUTERIE
100
AcDbLine
 10
5288.500646402901
 20
2055.95867116403
 30
0.0
 11
5288.500646402901
 21
3695.95867116403
 31
0.0
  0
LINE
  5
4B9
330
1F
100
AcDbEntity
  8
TUYAUTERIE
100
AcDbLine
 10
5288.500646402901
 20
3745.95867116403
 30
0.0
 11
5288.500646402901
 21
4634.101559818445
 31
0.0
  0
INSERT
  5
4C9
330
1F
100
AcDbEntity
  8
TUY_CHAUFFAGE
 48
50.0
100
AcDbBlockReference
  2
PURGEUR_AIR_AUTOMATIQUE
 10
5224.026593692379
 20
2977.95877769282
 30
0.0
  0
LINE
  5
4CA
330
1F
100
AcDbEntity
  8
TUY_CHAUFFAGE
100
AcDbLine
 10
5224.026593692379
 20
2977.958777692813
 30
0.0
 11
5184.061364942401
 21
2977.958777692813
 31
0.0
  0
ENDSEC
  0
SECTION
  2
OBJECTS
  0
DICTIONARY
  5
C
330
0
100
AcDbDictionary
  3
ACAD_DETAILVIEWSTYLE
350
B5
  3
ACAD_GROUP
350
D
  3
ACAD_IMAGE_VARS
350
6A
  3
ACAD_MLINESTYLE
350
17
  3
ACAD_SCALELIST
350
40
  3
ACAD_SECTIONVIEWSTYLE
350
B6
  3
ACDBVARIABLEDICTIONARY
350
3D
  3
APPDATA
350
71
  3
DWGPROPS
350
4CE
  0
DICTIONARY
  5
355
330
2
100
AcDbDictionary
280
     1
  3
ACAD_LAYERSTATES
360
356
  0
DICTIONARY
  5
4CF
330
312
100
AcDbDictionary
280
     1
  3
ACAD_MTEXT_RT
360
4D0
  0
DICTIONARY
  5
B5
102
{ACAD_REACTORS
330
C
102
}
330
C
100
AcDbDictionary
  0
DICTIONARY
  5
D
102
{ACAD_REACTORS
330
C
102
}
330
C
100
AcDbDictionary
  0
RASTERVARIABLES
  5
6A
102
{ACAD_REACTORS
330
C
102
}
330
C
100
AcDbRasterVariables
 90
        0
 70
     1
 71
     1
 72
     1
  0
DICTIONARY
  5
17
102
{ACAD_REACTORS
330
C
102
}
330
C
100
AcDbDictionary
  3
STANDARD
350
18
  0
DICTIONARY
  5
40
102
{ACAD_REACTORS
330
C
102
}
330
C
100
AcDbDictionary
  0
DICTIONARY
  5
B6
102
{ACAD_REACTORS
330
C
102
}
330
C
100
AcDbDictionary
  0
DICTIONARY
  5
3D
102
{ACAD_REACTORS
330
C
102
}
330
C
100
AcDbDictionary
  0
DICTIONARY
  5
71
102
{ACAD_REACTORS
330
C
102
}
330
C
100
AcDbDictionary
  0
XRECORD
  5
4CE
102
{ACAD_REACTORS
330
C
102
}
330
C
100
AcDbXrecord
  1
DWGPROPS COOKIE
  2

  3

  4

  6

  7

  8
moimeme
  9

300
=
301
=
302
=
303
=
304
=
305
=
306
=
307
=
308
=
309
=
 40
0.0
 41
2455022.637359514
 42
2457692.888971181
  1

 90
        0
  0
DICTIONARY
  5
356
102
{ACAD_REACTORS
330
355
102
}
330
355
100
AcDbDictionary
  0
XRECORD
  5
4D0
102
{ACAD_REACTORS
330
4CF
102
}
330
4CF
100
AcDbXrecord
 40
11697.0
  1
{\pxqc;Chaudière\Pgaz}
  0
MLINESTYLE
  5
18
102
{ACAD_REACTORS
330
17
102
}
330
17
100
AcDbMlineStyle
  2
Standard
 70
     0
  3

 62
   256
 51
90.0
 52
90.0
 71
     2
 49
0.5
 62
   256
  6
BYLAYER
 49
-0.5
 62
   256
  6
BYLAYER
  0
ENDSEC
  0
EOF
